Guitar Tabs for El Viejo Comunista - Manuel García

(/) Slide Up  (\) Slide Down  (h) Hammer On  (p) Pull Off  (b) Bend (r) Release (v) Vibrato (x) Muted

Tabs for Song : 
BPM : 200
capo at 2nd fret
   Unnnn    viejo que fuera   comunistaaaaa                  se sienta a fuma
E|-----7--------7--------5-----------------3--------3--------3--------3--------0--------0--
B|-----7--------7--------4-----------------0--------0--------0--------0--------1--------1--
G|-----7--------7--------5-----------------4--------4--------4--------4--------0--------0--
D|--5--------5-----0--4-----4--------------------0-----------------------------------------
A|--------5--------------------6--3--0--------------------3--------2-----0-----------3-----
E|--------------------------------------0-----0--------0--------0-----------3-----3--------

    aaaar la tarde entera    
E|--------0--------0--------2--------2--------2--------2-----
B|--------1--------1--------3--------3--------3--------3-----
G|--------0--------0--------4--------4--------4--------4-----
D|--------------------0--------------------------------------
A|-----3--------3--------2-----2-----------2-----2-----------
E|--3--------3--------------------2-----2-----------2-----2--

(SE REPITEN AMBOS SISTEMAS PARA TODA ESTROFA REGULAR)

    por  que  coinciden  en  su   ventana                  palomas grises

E|-----5--------5--------5--------5--------3--------3--------3--------3--------0--------0--
B|-----4--------4--------4--------4--------0--------0--------0--------0--------1--------1--
G|-----5--------5--------5--------5--------4--------4--------4--------4--------0--------0--
D|--4--------4--------4--------4-----------------0-----------------------------------------
A|--------0--------0--------0--------0--------------------3--------2-----0-----------3-----
E|--------------------------------------0-----0--------0--------0-----------3-----3--------
   con  la  pena  que  fumara                                         (bis desde C7)
E|--------0--------0--------2--------2--------2--------2-----
B|--------1--------1--------3--------3--------3--------3-----
G|--------0--------0--------4--------4--------4--------4-----
D|--------------------0--------------------------------------
A|-----3--------3--------2-----2-----------2-----2-----------
E|--3--------3--------------------2-----2-----------2-----2--

(C) Los años, (Am) La vida, (G) Su amor.  (Mismo arpegio que elBm)

Paste any tab in acousterr's tab maker and we'll play it !!!
Now supports capo and sound effects for vibrato/pull-off/hammer/bends/mutes etc !!! Checkout help section
tabs and chords, guitar tabs, music transcription, music technology, deep learning, music information retrieval, transcribe into tabs & chords, chordify, music renditions, songsterr, reverbnation, tabulature, bollywood chords, ultimate guitar, yousician, guitar lessons, acoustic guitar, electric guitar, guitar tuner, 911 tabs