Guitar Tabs for El Latido De Mi Corazón - Guitarra 1

(/) Slide Up  (\) Slide Down  (h) Hammer On  (p) Pull Off  (b) Bend (r) Release (v) Vibrato (x) Muted

Tabs for Song : 
BPM : 200

E|--5--6--8--------5--5h6p5-3--------------------------------------
B|--6--8--10-------6--6-----4--------3--4--6--------3--3h4p3-1-----
G|-----------------------------------3--5--7--------3--3-----2-----
D|-----------------------------------------------------------------
A|-----------------------------------------------------------------
E|-----------------------------------------------------------------


Dirás que es raro lo que me pasó

E|--------------------------8--8-----6--------------6-----------6--6-----5--
B|--------8-----------8--10-10-10----8--------------------------------------
G|--9--10----10----------------------------------7-----7--------7--7-----5--
D|--------------------------------------------------------------------------
A|--------------------------------------------------------------------------
E|--------------------------------------------------------------------------


Parece que anoche te encontré en mis sueños

E|-----------------5-----------6-----3-----------1-----------------------
B|--6--6--6---6/8-----------6--8-----5-----------3-----3--------3---3/5--
G|-----------------------------------------------------3--------3---3/5--
D|-----------------------------------------------------------------------
A|-----------------------------------------------------------------------
E|-----------------------------------------------------------------------



Paste any tab in acousterr's tab maker and we'll play it !!!
Now supports capo and sound effects for vibrato/pull-off/hammer/bends/mutes etc !!! Checkout help section
tabs and chords, guitar tabs, music transcription, music technology, deep learning, music information retrieval, transcribe into tabs & chords, chordify, music renditions, songsterr, reverbnation, tabulature, bollywood chords, ultimate guitar, yousician, guitar lessons, acoustic guitar, electric guitar, guitar tuner, 911 tabs