Bass Tabs for Eduardo Araujo, The Fevers - O Bom

Eduardo Araujo, The Fevers - O Bom

Intro
G|--------------------------------------------------------------------
D|--------------------------------------------------------------------
A|-----4--4--7--7--4--7-----4--4--7--7--4--7-----4--4--7--7--4--7-----
E|--5--------------------5--------------------5--------------------5--

Verse
G|-----------------------------------------------------------------------------
D|-----------------------------------------------4--4--7--7--4-----------------
A|-----4--4--7--7--4--7-----4--4--7--7--4--7--5-----------------5--6--6--6--6--
E|--5--------------------5-----------------------------------------------------

G|-----------------------------------------------------------------------------------
D|-----------------------------------------------------------------------------------
A|-----4--4--7--7--4--7-----4--4--7--7--4--7-----4--4--7--7--4--7-----4--7--7--4--7--
E|--5--------------------5--------------------5--------------------5-----------------

Chorus
G|-----------------------------------------------------------------------
D|-----4--4--7--7--4-----------------------7--7--7--5--5--4--4--------4--
A|--5-----------------5--6--6--6--6--6--6-----------------------4--4-----
E|-----------------------------------------------------------------------

G|--------------------------------------------------------------------------
D|--------------------------------------------------------------------------
A|--------5--5--8--8--7--7--------4--4--7--7--4--7--------4--4--7--7--4--7--
E|--7--7--------------------5--5--------------------5--5--------------------

Bridge
G|--------------------------------------------------------------------------------
D|-----4--4--7--7--4--7-----4--4--7--4--7-----------------------------------------
A|--5--------------------5--------------------4--4--7--7--4--7-----4--7--7--4--7--
E|-----------------------------------------5--------------------5-----------------

G|--------------------------------------------------------------------------------
D|-----4--4--7--7--4--7-----4--4--7--7--4--7--------------------------------------
A|--5--------------------5--------------------------6-----9--9--6--9--7--7--7--7--
E|--------------------------------------------7--7-----7--------------------------

Final
G|--------------------------------------------------------------------------------------
D|-----------------------------------------------4--4--7--7--4--7-----4--4--7--7--4--7-- Fade Out
A|-----4--4--7--7--4--7-----4--4--7--7--4--7--5--------------------5--------------------
E|--5--------------------5--------------------------------------------------------------
tabs and chords, guitar tabs, music transcription, music technology, deep learning, music information retrieval, transcribe into tabs & chords, chordify, music renditions, songsterr, reverbnation, tabulature, bollywood chords, ultimate guitar, yousician, guitar lessons, acoustic guitar, electric guitar, guitar tuner, 911 tabs