Bass Tabs for Eddie Cochran - Twenty Flight Rock

Eddie Cochran - Twenty Flight Rock

Intro
G|--------------------------------
D|--------2--------2--------2-----
A|--0--4-----0--4-----0--4-----0--
E|--------------------------------

Verse
G|--------------------------------------------2--------2--------------------------
D|--------2--------2--------2--------2--0--4-----0--4-----------------------------
A|--0--4-----0--4-----0--4-----0--4-----------------------0--------2--------2--0--
E|-----------------------------------------------------------0--4-----0--4--------

Chorus
G|--------------------------------------------------------------------------
D|--------------7--4--------7--4-----------------------4--7--4-----4--7--4--
A|-----4--7--4--------7--4--------7--4-----4--7--4--5-----------5-----------
E|--5-----------------------------------5-----------------------------------

G|--------------------------------------------------------------------------
D|-----------------------------6--9--6-----6--9--6--------------------------
A|-----4--7--4-----4--7--4--7-----------7--------------4--5--6--7--6--5--4--
E|--5-----------5-----------------------------------5-----------------------

tabs and chords, guitar tabs, music transcription, music technology, deep learning, music information retrieval, transcribe into tabs & chords, chordify, music renditions, songsterr, reverbnation, tabulature, bollywood chords, ultimate guitar, yousician, guitar lessons, acoustic guitar, electric guitar, guitar tuner, 911 tabs