Guitar Tabs for Eagle Birds

(/) Slide Up  (\) Slide Down  (h) Hammer On  (p) Pull Off  (b) Bend (r) Release (v) Vibrato (x) Muted

Tabs for Song : Eagle Birds - The Black Keys
Lead & Rhythm

Drums Start...
E|--------------------------------
B|--------------------------------
G|--------------------0-----------
D|--------2--0--2--0-----2--0--2--
A|--------------------------------
E|--12\0--------------------------

E|--------------------------------
B|--------------------------------
G|--------------2--0--------------
D|--2--0--2--0--------0--2--------
A|--------------------------------
E|--------------------------------

E|--------------------------------
B|--------------------------------
G|--------------0-----------------
D|--2--0--2--0-----2--0--2--------
A|--------------------------------
E|--------------------------------

E|--------------------------------
B|--------------------------------
G|--------------2--0--------------
D|--2--0--2--0--------0--2--------
A|--------------------------------
E|--------------------------------

CHORDS:

[Verse 1]

E
See twin eagle birds up

In the tree

One for you and there’s

One for me
A
When we thought we

Might be losing our minds
E
We saw the signs


[Chorus]

B
Don’t nobody wanna be lonely
A
Everybody oughta be loved sometime

Verse 2:
E
Feel you simmer down

In the pan

Feed me dinner right out

Of your hand
A
All night long I

Had you on my mind
E
Flying high

[Chorus]

B
Don’t nobody wanna be lonely
A
Everybody oughta be loved sometime
E
She love me right


[Solo]

E A E B E


[Verse 3]

E
You can search forever you might

Never find

A love so real that will

Heal like mine
A
Eagle bird I

Heard you fly on by
E
Late last night


[Final Chorus & Outro]

B
Don’t nobody wanna be lonely
A
Everybody oughta be loved
B
Don’t nobody wanna be lonely
A
Everybody oughta be loved sometime
E
She love me right

Flying high

With you and I

E
tabs and chords, guitar tabs, music transcription, music technology, deep learning, music information retrieval, transcribe into tabs & chords, chordify, music renditions, songsterr, reverbnation, tabulature, bollywood chords, ultimate guitar, yousician, guitar lessons, acoustic guitar, electric guitar, guitar tuner, 911 tabs