Guitar Tabs for Dying In La

(/) Slide Up  (\) Slide Down  (h) Hammer On  (p) Pull Off  (b) Bend (r) Release (v) Vibrato (x) Mutedma
E|-----------2--0-----------------------------
B|--3--3--3--------3--------------------3--2--
G|-----------2--------------2--0--2--2--------
D|--------------------------3-----------------
A|--2--------------2-----------------------0--
E|--------------------------------------------

E|-----------2--0-----------------------------------------------------
B|--3--3--3--------3--------3--3--3--3--------------3--2--2--0--2--3--
G|-----------2-----------------4--2--4--2--0--2--2--------------------
D|--------------------------------------3-----------------------------
A|--2--------------2--------------------------------------------------
E|--------------------------------------------------------------------


Tabs for Song : 

Song lyrics here
E|-----------2--0--------------------------------------------------
B|--3--3--3--------3--------3--3-----0-----------------------3--2--
G|-----------2-----------------4--2-----2--------2--0--2--2--------
D|-----------------------------------------------3-----------------
A|--2--------------2--------------0-----0-----------------------0--
E|-----------------------------------------------------------------

Song lyrics here
E|--
B|--
G|--
D|--
A|--
E|--

Paste any tab in acousterr's tab maker and we'll play it !!!
Now supports capo and sound effects for vibrato/pull-off/hammer/bends/mutes etc !!! Checkout help section
tabs and chords, guitar tabs, music transcription, music technology, deep learning, music information retrieval, transcribe into tabs & chords, chordify, music renditions, songsterr, reverbnation, tabulature, bollywood chords, ultimate guitar, yousician, guitar lessons, acoustic guitar, electric guitar, guitar tuner, 911 tabs