Guitar Tabs for Duyen Minh Lo Demo

(/) Slide Up  (\) Slide Down  (h) Hammer On  (p) Pull Off  (b) Bend (r) Release (v) Vibrato (x) Muted

Tabs for Song : 
capo at 4th fret
[Em]Mình chia tay nhau t? [D]?ây. T?n th??ng trong em c?ng [G]nhi?u r?i  
E|--------------------|---------------------
B|-----------------------------------------
G|-----0--0--------2-----0--0--------------
D|--2--------4--2-----2--------4--4--2--0--
A|-----------------------------------------
E|-----------------------------------------
[C]Tình yêu này ?âu có [Bm]l?i gì. L?i [Am]là thu?c v? hai [B7]chúng ta 
E|-----------------------|------------------------
B|-----------------0-----------------------------
G|-----0-----0--2--------0-----------2---2h4--2--
D|--2-----2-----------4-----2--0--2--------------
A|-----------------------------------------------
E|-----------------------------------------------
[C]Yêu g?p nhau là [D]duyên .[Bm]Khi h?t duyên t? [Em]?i .Ngh? [Am]v?y, [Bm]cho nh? [Em]lòng h?n 
E|-----------------|-----------------|----------------------
B|--------------------------------------------------------
G|--0-----0-----2--2---2h4--2-----0--0--------------------
D|-----2-----2-----------------4--------2---2h4--2--0--2--
A|--------------------------------------------------------
E|--------------------------------------------------------

??ng oán [C]trách n?a nhé xin ng??i hãy [Bm]??ng than van.
Vì phía [Am]tr??c hai [D]ta s? còn ?o?n [G]???ng r?t [D]dài 


E|--------------------------------------|------------------------------------
B|--0--3---3\5--5--5--3--0-----0--3--3--0--3---3\5--5--5--3--0------0h3-----
G|--------------------------2-----------------------------------2--------2--
D|--------------------------------------------------------------------------
A|--------------------------------------------------------------------------
E|--------------------------------------------------------------------------
 Tình yêu [C]?ó s? mãi ch? là k? [Bm]ni?m thôi anh.  S? không [C]còn nh?ng yêu [D]th??ng c?ng nh? [Em]gi?n h?n [D]
E|--------------------------------2--2--|-2h3--2--0---1h2--0-----------------
B|--0--3---3\5--5--5--3--0-----0-----------------------------3--3--0-----0--
G|--------------------------2-----------------------------------------2-----
D|--------------------------------------------------------------------------
A|--------------------------------------------------------------------------
E|--------------------------------------------------------------------------
Ngày mai [C]n?ng s? ?m s? làm m?t [Bm]ngày t??i xanh 
Ngày mai [Am]s? b??c [D]ti?p con ???ng mà [G]ta ?ã [D]ch?n 
E|--------------------------------------|------------------------------------
B|--0--3---3\5--5--5--3--0-----0--3--3--0--3---3\5--5--5--3--0-----0--3-----
G|--------------------------2-----------------------------------2--------2--
D|--------------------------------------------------------------------------
A|--------------------------------------------------------------------------
E|--------------------------------------------------------------------------
?? r?i [C]khi quay l?ng ngo?nh l?i nhìn [Bm]v? quá kh? 
S? không [Am]còn nh?ng yêu [Bm]th??ng cho nh? [Em]lòng h?n. 

E|--------------------------------2--2--|-2h3--2--0---1h2--0--------------------
B|--0--3---3\5--5--5--3--0-----0-----------------------------3--3-----0---3\5--
G|--------------------------2--------------------------------------2-----------
D|-----------------------------------------------------------------------------
A|-----------------------------------------------------------------------------
E|-----------------------------------------------------------------------------

Song lyrics here


Paste any tab in acousterr's tab maker and we'll play it !!!
Now supports capo and sound effects for vibrato/pull-off/hammer/bends/mutes etc !!! Checkout help section
tabs and chords, guitar tabs, music contests, music covers, songsterr, reverbnation, renditions, tabulature, bollywood chords, ultimate guitar, yousician, guitar lessons, torrins, fender, gibson, acoustic guitar, electric guitar, youtube covers, gootar, guitar tuner, A-Z tabs, 911 tabs