Bass Tabs for Dueling Banjos - Charlie Daniels Band

(/) Slide Up  (\) Slide Down  (h) Hammer On  (p) Pull Off  (b) Bend (r) Release (v) Vibrato

Tabs for Song : 

Song lyrics here
G|--------------------------0--0--0-----------------------------------------------------------------------------------------
D|--------0-----------------0--1--0--------0--1--3--0--1-----0-----------------------------------------------------3--------
A|--0-----------------------0--0--0-----------------------2-----0--2--------0--0--2--4--0--------0--0--0--2--4--5-----5--4--
E|--0-----------------------------------------------------------------------------------------------------------------------
B|--------------0--------0--0--0--0-----------------------------------------------------------------------------------------

G|-----------------------------------------------2--3--5--3--2--------------------------------------------------2--4--5--7--5--4--
D|--------------------3--------------1--1--1--3-----------------------------------------3--------------3--3--3--------------------
A|--0--0--0--2--4--5-----5--4-----------------------------------------0--0--0--2--4--5-----5--4-----------------------------------
E|--------------------------------------------------------------------------------------------------------------------------------
B|--------------------------------------------------------------------------------------------------------------------------------

G|--------------------------------------------------------------------------------------------------------
D|--0--0--0--1--0--------0--0--0--1--0--------0--1--3--0--1-----0-----------0--0--1--3--0--1-----0--------
A|--0--0--0--0--0--------0--0--0--0--0-----------------------2-----0--2-----------------------2-----0--2--
E|--0--0--0--2--0--------0--0--0--2--0--------------------------------------------------------------------
B|--------------------------------------------------------------------------------------------------------
 
Song lyrics here
G|-----------------------------------------------------------------------------------------
D|--0--1--3--0--1-----0--------------------0--------------0-----------------0--------------
A|-----------------2-----0--2--------0---------2/-3/4--0-----2--------0---------2/-3/4--0--
E|-----------------------------0--------------------------------0--------------------------
B|--------------------------------------0--------------------------------0-----------------

G|--------------------------------------------------------------------------------------------------------------
D|-----5--------5-----------5--------5--------5--------5-----------0--------0--------0-----0--------0--------0--
A|--5--------5-----------5--------5--------5--------5-----------0--------0--------0-----0--------0--------0-----
E|--------------------------------------------------------------------------------------------------------------
B|--------5-----------5-----------------5--------5--------------------0--------0--------------0--------0--------

G|--------------------------------------------------------------------------------------------------------
D|-----7--------7--------7-----7--------7--------7-----------0--------0--------0-----0--------0--------0--
A|--7--------7--------7-----7--------7--------7-----------0--------0--------0-----0--------0--------0-----
E|--------------------------------------------------------------------------------------------------------
B|--------7--------7--------------7--------7--------------------0--------0--------------0--------0--------

G|--------------------------------------------------------------------------------------------------------
D|-----5--------5--------5-----5--------5--------5-----------0--------0--------0-----0--------0--------0--
A|--5--------5--------5-----5--------5--------5-----------0--------0--------0-----0--------0--------0-----
E|--------------------------------------------------------------------------------------------------------
B|--------5--------5--------------5--------5--------------------0--------0--------------0--------0--------

G|-----------------------------------------------------------------------------------------
D|-----7--------7--------7-----7--------7--------7-----------0--------0--------0-----0-----
A|--7--------7--------7-----7--------7--------7-----------0--------0--------0-----0--------
E|-----------------------------------------------------------------------------------------
B|--------7--------7--------------7--------7--------------------0--------0--------------0--

G|--------------------------------------------------------------------------------------------------------
D|-----0--------0--------0-----0--------0--------0-----------0--------0--------0-----0--------0--------0--
A|--0--------0--------0-----0--------0--------0-----------0--------0--------0-----0--------0--------0-----
E|--------------------------------------------------------------------------------------------------------
B|--------0--------0--------------0--------0--------------------0--------0--------------0--------0--------

G|--------------------------------------------------------------------------------------------------------
D|-----0--------0--------0-----0--------0--------0-----------0--------0--------0-----0--------0--------0--
A|--0--------0--------0-----0--------0--------0-----------0--------0--------0-----0--------0--------0-----
E|--------------------------------------------------------------------------------------------------------
B|--------0--------0--------------0--------0--------------------0--------0--------------0--------0--------

G|--------------------------------------------------------------------------------------------------------
D|-----5--------5--------5-----5--------5--------5-----------5--------5--------5-----5--------5--------5--
A|--5--------5--------5-----5--------5--------5-----------5--------5--------5-----5--------5--------5-----
E|--------------------------------------------------------------------------------------------------------
B|--------5--------5--------------5--------5--------------------5--------5--------------5--------5--------

G|--------------------------------------------------------------------------------------------------------
D|-----0--------0--------0-----0--------0--------0-----------0--------0--------0-----0--------0--------0--
A|--0--------0--------0-----0--------0--------0-----------0--------0--------0-----0--------0--------0-----
E|--------------------------------------------------------------------------------------------------------
B|--------0--------0--------------0--------0--------------------0--------0--------------0--------0--------

G|--------------------------------------------------------------------------------------------------------
D|-----7--------7--------7-----7--------7--------7-----------7--------7--------7-----7--------7--------7--
A|--7--------7--------7-----7--------7--------7-----------7--------7--------7-----7--------7--------7-----
E|--------------------------------------------------------------------------------------------------------
B|--------7--------7--------------7--------7--------------------7--------7--------------7--------7--------

G|-----------------------------------------------------------------------------------------------------
D|--0--0--0--1--0--------0--0--0--1--0--------0--1--3--0--1-----0-----------0--1--3--0--1-----0--------
A|--0--0--0--0--0--------0--0--0--0--0-----------------------2-----0--2--------------------2-----0--2--
E|--0--0--0--2--0--------0--0--0--2--0-----------------------------------------------------------------
B|-----------------------------------------------------------------------------------------------------

G|-----------------------------------------------------------------------------------------------
D|--0--1--3--0--1-----0-----------------------0--------------0--------------------0--------------
A|-----------------2-----0--2-----------0---------2/-3/4--0-----2-----------0---------2/-3/4--0--
E|-----------------------------0-----------------------------------0-----------------------------
B|-----------------------------------------0-----------------------------------0-----------------

G|--------------------------------------------------------------------------------------------------------------------
D|-----0--------0--------0-----0--0-----0-----0--0--0--0--0--------------------------------0--------0--------0--------
A|--0--------0--------0-----0-----0-----0-----0--0--0--0--0------3/4---3/4-----------4--------4--------4--------4-----
E|--------------------------------------------------------------------------5--5--------------------------------------
B|--------0--------0--------------0-----0-----0--0--0--0--0-----------------------------0--------0--------0--------0--

G|-----------------------------------------------------------------------5-----------------5--------------5--------------7-----
D|--0--------0--------0--------0--------0-----------0------5b---------5------5b---------5-----------2--5--------------7-----0--
A|-----4--------4--------4--------4-----------0--2--------------------------------------------6-----------------5--7--------0--
E|-----------------------------------------2-----------------------------------------------------------------------------------
B|--------0--------0--------0--------0---------------------3b---0--0---------3b---0--0-----------------------4--------------0--

Now supports capo and sound effects for vibrato/pull-off/hammer/bends etc !!! Checkout help section
tabs and chords, guitar tabs, music transcription, music technology, deep learning, music information retrieval, transcribe into tabs & chords, chordify, music renditions, songsterr, reverbnation, tabulature, bollywood chords, ultimate guitar, yousician, guitar lessons, acoustic guitar, electric guitar, guitar tuner, 911 tabs