Guitar Tabs for Dua Lipa - New Rules

(/) Slide Up  (\) Slide Down  (h) Hammer On  (p) Pull Off  (b) Bend (r) Release (v) Vibrato (x) Muted

Tabs & Chords For Dua Lipa New Rules

Check Track 2 for Chord Positions 

    Am                            G           Gm    F                             Am    G     
E|--------------------------------------------------0--------------0--------------------------
B|--1--0-----0--1--0--------1--0-----0--3-----1-----------------------------------1--0-----0--
G|--------2-----------2-----------2--------------------2--2--2--------2--2--2-----------2-----
D|--------------------------------------------------------------------------------------------
A|--------------------------------------------------------------------------------------------
E|--------------------------------------------------------------------------------------------

          Am          G                 F                             A        G     F        
E|--------------------------------0-----0--------------0--------------0--3-----3--1--0--------
B|--1--0--------1--0-----0--3-----------------------------------------------------------3--1--
G|--------2-----------2--------------------2--2--2--------2--2--2-----------------------------
D|--------------------------------------------------------------------------------------------
A|--------------------------------------------------------------------------------------------
E|--------------------------------------------------------------------------------------------

    G                 F                 G     A        G           F     G              F     
E|--------0--1--0-----------0--1--0--------0--0--3-----3--1--0--------------0--1--0--------0--
B|--------------------------------------3-----------------------3--1--------------------------
G|--2-----------------2-----------------------------------------------2--2--------------2-----
D|--------------------------------------------------------------------------------------------
A|--------------------------------------------------------------------------------------------
E|--------------------------------------------------------------------------------------------

             A           D                             G                    F                 
E|--1--0--------------0-----------------------------------------------------------0-----------
B|-----------------------3--3--3-----1--3--3--3--3--3--1-----3--3--3--3--------------3--3--3--
G|-----------2-----2--------------------------------------2-----------------2-----------------
D|--------------------------------------------------------------------------------------------
A|--------------------------------------------------------------------------------------------
E|--------------------------------------------------------------------------------------------

                   G                                                                          F  
E|-----------------------------------0-----------------0--3--3--3--3--3--3--3-----------0--------
B|-----3-----3-----3--3--3--------------3--3--3-----1--------------------------3--3--3-----------
G|--0-----2-----2--------------2--------------------------------------------------------------2--
D|-----------------------------------------------------------------------------------------------
A|-----------------------------------------------------------------------------------------------
E|-----------------------------------------------------------------------------------------------

                                        Gm          Am                
E|--0--0--------------------------------------------------0-----------
B|--------3--3--3-----3-----3-----3-----3-----------0--1-----1--0-----
G|-----------------------2-----2-----------2-----2-----------------2--
D|--------------------------------------------------------------------
A|--------------------------------------------------------------------
E|--------------------------------------------------------------------

Guitar Chords for Dua Lipa - New Rules






    Am                            G           Gm    F                             Am    G     
E|--0-----------------------------3-----------3-----1-----------------------------0-----3-----
B|--1-----------------------------3-----------3-----1-----------------------------1-----3-----
G|--2-----------------------------4-----------3-----2-----------------------------2-----4-----
D|--2-----------------------------5-----------5-----3-----------------------------2-----5-----
A|--0-----------------------------5-----------5-----3-----------------------------0-----5-----
E|--------------------------------3-----------3-----1-----------------------------------3-----

          Am          G                 F                             A        G     F        
E|--------0-----------3-----------------1-----------------------------0--------3-----1--------
B|--------1-----------3-----------------1-----------------------------2--------3-----1--------
G|--------2-----------4-----------------2-----------------------------2--------4-----2--------
D|--------2-----------5-----------------3-----------------------------2--------5-----3--------
A|--------0-----------5-----------------3-----------------------------0--------5-----3--------
E|--------------------3-----------------1--------------------------------------3-----1--------

    G                 F                 G     A        G           F     G              F     
E|--3-----------------1-----------------3-----0--------3-----------1-----3--------------1-----
B|--3-----------------1-----------------3-----2--------3-----------1-----3--------------1-----
G|--4-----------------2-----------------4-----2--------4-----------2-----4--------------2-----
D|--5-----------------3-----------------5-----2--------5-----------3-----5--------------3-----
A|--5-----------------3-----------------5-----0--------5-----------3-----5--------------3-----
E|--3-----------------1-----------------3--------------3-----------1-----3--------------1-----

             A           D                             G                    F                 
E|-----------0-----------2-----------------------------3--------------------1-----------------
B|-----------2-----------3-----------------------------3--------------------1-----------------
G|-----------2-----------2-----------------------------4--------------------2-----------------
D|-----------2-----------0-----------------------------5--------------------3-----------------
A|-----------0-----------------------------------------5--------------------3-----------------
E|-----------------------------------------------------3--------------------1-----------------

                   G                                                                          F  
E|-----------------3--------------------------------------------------------------------------1--
B|-----------------3--------------------------------------------------------------------------1--
G|-----------------4--------------------------------------------------------------------------2--
D|-----------------5--------------------------------------------------------------------------3--
A|-----------------5--------------------------------------------------------------------------3--
E|-----------------3--------------------------------------------------------------------------1--

                                        Gm          Am                
E|--------------------------------------3-----------0-----------------
B|--------------------------------------3-----------1-----------------
G|--------------------------------------3-----------2-----------------
D|--------------------------------------5-----------2-----------------
A|--------------------------------------5-----------0-----------------
E|--------------------------------------3-----------------------------

tabs and chords, guitar tabs, music transcription, music technology, deep learning, music information retrieval, transcribe into tabs & chords, chordify, music renditions, songsterr, reverbnation, tabulature, bollywood chords, ultimate guitar, yousician, guitar lessons, acoustic guitar, electric guitar, guitar tuner, 911 tabs