Guitar Tabs for Drop The Bomb

(/) Slide Up  (\) Slide Down  (h) Hammer On  (p) Pull Off  (b) Bend (r) Release (v) Vibrato (x) Muted

Tabs for Song : 
BPM : 200

Song lyrics here
E|--------------------------------------------------------------------------------------------------
B|--------------------------------------------------------------------------------------------------
G|--------------------------------------------------------------------------------------------------
D|--7-----7-----7-----7-----7-----7-----7-----7-----5-----5-----5-----5-----------------------------
A|--5-----5-----5-----5-----5-----5-----5-----5-----3-----3-----3-----3-----5-----5-----5-----5-----
E|--------------------------6-----6-----6-----6-----------------------------3-----3-----3-----3-----

E|--------------------------------------------------------------------------------------------------
B|--------------------------------------------------------------------------------------------------
G|--------------------------------------------------------------------------------------------------
D|--7-----7-----7-----7-----7-----7-----7-----7-----5-----5-----5-----5-----------------------------
A|--5-----5-----5-----5-----5-----5-----5-----5-----3-----3-----3-----3-----5-----5-----5-----5-----
E|--------------------------6-----6-----6-----6-----------------------------3-----3-----3-----3-----

E|--------------------------------------------------------------------------------------------------
B|--------------------------------------------------------------------------------------------------
G|--------------------------------------------------------------------------------------------------
D|--7-----------------------7-----------------------5-----------------------------------------------
A|--5-----------------------5-----------------------3-----------------------5-----------------------
E|--------------------------6-----------------------------------------------3-----------------------

E|--------------------------------------------------------------------------------------------------
B|--------------------------------------------------------------------------------------------------
G|--------------------------------------------------------------------------------------------------
D|--7-----------------------7-----------------------5-----------------------------------------------
A|--5-----------------------5-----------------------3-----------------------5-----------------------
E|--------------------------6-----------------------------------------------3-----------------------

E|--------------------------------------------------------------------------------------------------
B|--------------------------------------------------------------------------------------------------
G|--------------------------------------------------------------------------------------------------
D|-----7--8--7--------5--7-----5--7--3--------3--------7--8--5--------5--7-----5--7--3--------7-----
A|--5--------------5--------3--------------5--------5--------------5--------3--------------5--------
E|--------------6-----------------------3-----------------------6-----------------------3-----------

E|--------------------------------------------------------------------------------------------------
B|--------------------------------------------------------------------------------------------------
G|--------------------------------------------------------------------------------------------------
D|-----7--8--7--------5--7-----5--7--3--------3--------7--8--7--------5--7-----5--7--3--------7-----
A|--5--------------5--------3--------------5--------5--------------5--------3--------------5--------
E|--------------6-----------------------3-----------------------6-----------------------3-----------

Song lyrics here
E|--------------------------------------------------------------------------------------------------
B|--------------------------------------------------------------------------------------------------
G|--------------------------------------------------------------------------------------------------
D|--7--7--7-----7--7--7-----7--7--7-----7--7--7-----5--5--5-----5--5--5-----------------------------
A|--5--5--5-----5--5--5-----5--5--5-----5--5--5-----3--3--3-----3--3--3-----5--5--5-----5--5--5-----
E|--------------------------6--6--6-----6--6--6-----------------------------3--3--3-----3--3--3-----

E|--------------------------------------------------------------------------------------------------
B|--------------------------------------------------------------------------------------------------
G|--------------------------------------------------------------------------------------------------
D|--7--7--7-----7--7--7-----7--7--7-----7--7--7-----5--5--5-----5--5--5-----------------------------
A|--5--5--5-----5--5--5-----5--5--5-----5--5--5-----3--3--3-----3--3--3-----5--5--5-----5--5--5-----
E|--------------------------6--6--6-----6--6--6-----------------------------3--3--3-----3--3--3-----

E|--------------------------------------------------------------------------
B|--------------------------------------------------------------------------
G|--------------------------------------------------------------------------
D|-----------7-----------------7-----------------5-----------------5--------
A|--5--7--8-----8--7--5--7--8-----8--7--3--5--6-----6--5--3--5--6-----------
E|--------------------------------------------------------------------------

E|--------------------------------------------------------------------------
B|--------------------------------------------------------------------------
G|-----------------------------------------------------------------7--------
D|-----------7-----------------7-----------------5-----------------7--------
A|--5--7--8-----8--7--5--7--8-----8--7--3--5--6-----6--5--3--5--6--5--------
E|--------------------------------------------------------------------------

E|--------------------------------------------------------------------------
B|--------------------------------------------------------------------------
G|--------------------------------------------------------------------------
D|-----------7-----------------7-----------------5-----------------5--------
A|--5--7--8-----8--7--5--7--8-----8--7--3--5--6-----6--5--3--5--6-----------
E|--------------------------------------------------------------------------

E|--------------------------------------------------------------------------
B|--------------------------------------------------------------------------
G|-----------------------------------------------------------------7--------
D|-----------7-----------------7-----------------5-----------------7--------
A|--5--7--8-----8--7--5--7--8-----8--7--3--5--6-----6--5--3--5--6--5--------
E|--------------------------------------------------------------------------

E|--------------------------------------------------------------------------------------------------
B|--------------------------------------------------------------------------------------------------
G|--------------------------------------------------------------------------------------------------
D|-----7--8--7--------5--7-----5--7--3--------3--------7--8--7--------5--7-----5--7--3--------3-----
A|--5--------------5--------3--------------5--------5--------------5--------3--------------5--------
E|--------------6-----------------------3-----------------------6-----------------------3-----------
                              Calibration                                    Sensation
E|--------------------------------------------------------------------------------------------------
B|--------------------------------------------------------------------------------------------------
G|--------------------------------------------------------------------------------------------------
D|-----7--8--7--------5--7-----------------------------7--8--7--------5--3--------------------------
A|--5--------------5--------------------------------5--------------5--------------------------------
E|--------------6-----------------------------------------------6-----------------------------------
                              Destination                                    Reverberation
E|--------------------------------------------------------------------------------------------------
B|--------------------------------------------------------------------------------------------------
G|--------------------------------------------------------------------------------------------------
D|-----7--8--7--------5--7-----------------------------7--8--7--------5--12-------------------------
A|--5--------------5--------------------------------5--------------5--------------------------------
E|--------------6-----------------------------------------------6-----------------------------------
       Calibration baby, im ready to try
E|--------------------------------------------------------------------------------------------------
B|--------------------------------------------------------------------------------------------------
G|--------------------------------------------------------------------------------------------------
D|-----7--8--7--------5--7-----5--7--3--------3--------7--8--7--------5--7-----5--7--3--------7-----
A|--5--------------5--------3--------------5--------5--------------5--------3--------------5--------
E|--------------6-----------------------3-----------------------6-----------------------3-----------
       Sensation in me, im ready to fly
E|--------------------------------------------------------------------------------------------------
B|--------------------------------------------------------------------------------------------------
G|--------------------------------------------------------------------------------------------------
D|-----7--8--7--------5--7-----5--7--3--------3--------7--8--7--------5--7-----5--7--3--------7-----
A|--5--------------5--------3--------------5--------5--------------5--------3--------------5--------
E|--------------6-----------------------3-----------------------6-----------------------3-----------
       Destination concrete, im ready to dive
E|-----------------------------------------------------------------------------------------------------
B|-----------------------------------------------------------------------------------------------------
G|-----------------------------------------------------------------------------------------------------
D|-----7--8--7--------5--7-----5--7--3--------3-----------7--8--7-----5--5--7-----5--7--3--------7-----
A|--5--------------5--------3--------------5-----------5-----------6-----------3--------------5--------
E|--------------6-----------------------3--------------------------------------------------3-----------
       Reverberation army, we're ready to die                                    Yeah, Yeah ,Yeah
E|--------------------------------------------------------------------------------------------------
B|--------------------------------------------------------------------------------------------------
G|--------------------------------------------------------------------------------------------------
D|-----7--8--7--------5--7-----5--7--3--------3--------7--8--7--------5--7-----5--7--3--------7-----
A|--5--------------5--------3--------------5--------5--------------5--------3--------------5--------
E|--------------6-----------------------3-----------------------6-----------------------3-----------
      Drop the bomb on it                                                     Drop a bomb on them
E|--------------------------------------------------------------------------------------------------
B|--------------------------------------------------------------------------------------------------
G|--------------------------------------------------------------------------------------------------
D|--7--7--7--7--7--7--7--7--5--5--5--5--------------7--7--7--7--7--7--7--7--5--5--5--5--------------
A|--5--5--5--5--5--5--5--5--3--3--3--3--5--5--5--5--5--5--5--5--5--5--5--5--3--3--3--3--5--5--5--5--
E|--------------6--6--6--6--------------3--3--3--3--------------6--6--6--6--------------3--3--3--3--

E|--------------------------------------------------------------------------------------------------t
B|--------------------------------------------------------------------------------------------------
G|--------------------------------------------------------------------------------------------------
D|--7--7--7--8--7--7--7--5--5--5--5--7-----------3--7--7--7--8--7--7--7--5--5--5--5--7-----------3--
A|--5--5--5-----5--5--5-----3--3--3-----5--5--5-----5--5--5-----5--5--5-----3--3--3-----5--5--5-----
E|--------------6--6--6-----------------3--3--3-----------------6--6--6-----------------3--3--3-----

Paste any tab in acousterr's tab maker and we'll play it !!!
Now supports capo and sound effects for vibrato/pull-off/hammer/bends/mutes etc !!! Checkout help section

Bass Tabs for Drop The Bomb






G|--------------------------------------------------------------------------------------------------
D|--------------------------------------------------------------------------------------------------
A|--0--0--0--0--0--0--0--0--7--7--7--7--7--7--7--7--3--3--3--3--3--3--3--3--2--2--2--2--2--2--2--2--
E|--------------------------------------------------------------------------------------------------



G|--------------------------------------------------------------------------------------------------
D|--------------------------------------------------------------------------------------------------
A|--0--0--0--0--0--0--0--0--7--7--7--7--7--7--7--7--3--3--3--3--3--3--3--3--2--2--2--2--2--2--2--2--
E|--------------------------------------------------------------------------------------------------



G|--------------------------------------------------------------------------------------------------
D|--------------------------------------------------------------------------------------------------
A|--0-----0-----0-----0-----7-----7-----7-----7-----3-----3-----3-----3-----2-----2-----2-----2-----
E|--------------------------------------------------------------------------------------------------



G|--------------------------------------------------------------------------------------------------
D|--------------------------------------------------------------------------------------------------
A|--0-----0-----0-----0-----7-----7-----7-----7-----3-----3-----3-----3-----2-----2-----2-----2-----
E|--------------------------------------------------------------------------------------------------



G|--------------------------------------------------------------------------------------------------
D|--------------------------------------------------------------------------------------------------
A|--------------------------6--6--6--5--5--5--5-----------------------------6--6--6--5--5--5--5-----
E|--6--6--6--3--3--3--3-----------------------------6--6--6--3--3--3--3-----------------------------



G|--------------------------------------------------------------------------------------------------
D|--------------------------------------------------------------------------------------------------
A|--------------------------6--6--6--5--5--5--5-----------------------------6--6--6--5--5--5--5-----
E|--6--6--6--3--3--3--3-----------------------------6--6--6--3--3--3--3-----------------------------




G|--------------------------------------------------------------------------------------------------
D|--------------------------------------------------------------------------------------------------
A|--0--0--0--0--0--0--0--0--7--7--7--7--7--7--7--7--3--3--3--3--3--3--3--3--2--2--2--2--2--2--2--2--
E|--------------------------------------------------------------------------------------------------


tabs and chords, guitar tabs, music transcription, music technology, deep learning, music information retrieval, transcribe into tabs & chords, chordify, music renditions, songsterr, reverbnation, tabulature, bollywood chords, ultimate guitar, yousician, guitar lessons, acoustic guitar, electric guitar, guitar tuner, 911 tabs