Bass Tabs for Drinks After Work (toby Keith)

(/) Slide Up  (\) Slide Down  (h) Hammer On  (p) Pull Off  (b) Bend  (v) Vibrato  (x) Muted

4-string bass tabs for "Drinks After Work" by Toby Keith. Standard EADG tuning.

PRE-INTRO (my vamp, not in original; harmonic=*, ring=r):
G|--12*r-----------------------------------------
D|--------------12*r--------10r------------------
A|--------------------------------------10r------
E|-----------------------------------------------

INTRO:
G|-----------------7--9--7-----------------------
D|-(5)--5-----5/9--------------------7-----------
A|-(5)-------------------------5--------5--3--3--
E|-----------------------------------------------

G|----------------------------------- 
D|-----------5------------5h7---5h7-- (5)   X
A|-----3--------3--3-----------------       2
E|-----------------------------------

VERSE:
G|-------------------------------------------
D|o-------------0-2-0---0-------0------------
A|o---------0h2---------------2---3----3-----
E|--(/)3--------------------3----------------

G|-------------0-----------0-------  X
D|-----0--------------0h2------5\0-  2
A|--3------------------------------   
E|--------3------------------------ (/)(3)

REFRAIN:
G|---------------------------------------------
D|-------------0-2-0-----0---------0-----------
A|---------0h2-------------------2---3-----3---
E|--3--3--------------3--------3--------3------

G|-----------------0-----------0--0--------  X
D|--------0---------------0h2--------2--0--  2
A|--3--3-----------------------------------
E|-----------3----------------------------- (3)

Alternate BRIDGE (my vamp, not in original):
G|-----------------------------------------------5-----
D|--------------10----10----10---------------------5---
A|-/10---10\0-----10----10----10--------/5--\3-------5-
E|---------------------------------\3------------------

BRIDGE (original):  ("Been a long day...")
G|-----------------------11h12-------12\0--
D|-----------------------------------------
A|--10----10\0-----------------------------
E|-----------------------------------------



G|--
D|--
A|--
E|--




tabs and chords, guitar tabs, music transcription, music technology, deep learning, music information retrieval, transcribe into tabs & chords, chordify, music renditions, songsterr, reverbnation, tabulature, bollywood chords, ultimate guitar, yousician, guitar lessons, acoustic guitar, electric guitar, guitar tuner, 911 tabs