Guitar Tabs for Dreams Of Tomorrow

Tabs for Song :
E|--2--------3--------2-----------5--------6--------5-----------7--------8--------7-----------
B|-----3--------3--------3-----3-----6--------6--------6-----6-----8--------8--------8-----8--
G|--------2--------2--------2-----------5--------5--------5-----------7--------7--------7-----
D|--------------------------------------------------------------------------------------------
A|--------------------------------------------------------------------------------------------
E|--------------------------------------------------------------------------------------------

E|--10-------11-------10----------12-------13-------12----------14-------15-------14----------
B|-----11-------11-------11----11----13-------13-------13----13----15-------15-------15----15-
G|--------10-------10-------10----------12-------12-------12----------14-------14-------14----
D|--------------------------------------------------------------------------------------------
A|--------------------------------------------------------------------------------------------
E|--------------------------------------------------------------------------------------------

E|--12-------13-------10-------11-------7--------8--------5--------6--------2--------3--------
B|-----13-------13-------11-------11-------8--------8--------6--------6--------3--------3-----
G|--------12-------12-------10-------10-------7--------7--------5--------5--------2--------2--
D|--------------------------------------------------------------------------------------------
A|--------------------------------------------------------------------------------------------
E|--------------------------------------------------------------------------------------------

E|--2-----------0--2--0-----3--------2-----------------------------3-----------3-----------0--
B|-----3-----3-----------3-----3--------3--------------3-----------3--3-----------3-----3-----
G|--------2-----------------------2--------2--------2-----------0--4-----0-----------0--------
D|--------------------------------------------0--------------0-----5--------0-----------------
A|-----------------------------------------------4--------2--------5--------------------------
E|-----------------------------------------------------------------3--------------------------

E|--2--0-----3--------2-----------------------------3-----------3--------0--2--0--------3-----
B|--------3-----3--------3--------------3-----------3--3-----------3--------------3--------3--
G|-----------------2--------2--------2-----------0--4-----0-----------0--------------2--------
D|-----------------------------0--------------0-----5--------0--------------------------------
A|--------------------------------4--------2--------5-----------------------------------------
E|--------------------------------------------------3-----------------------------------------

E|-----2-----------------------------3--3--3--3--3--3--3--0--2--2--2--2--2--3--2--0--2--0--2--
B|--------3--------------3-----------3--3--3--3--3--3--3--------3--3--3--3--------------------
G|--2--------2--------2-----------0--4--4--4--4--4--4--4--------2--2--2--2--------------------
D|--------------0--------------0-----5--5--5--5--5--5--5--------------------------------------
A|-----------------4--------2--------5--5--5--5--5--5--5--------------------------------------
E|-----------------------------------3--3--3--3--3--3--3--------------------------------------

E|--2--2--2--3--2--0-----2--------------------3--3--3--3--3--3--0--2--2--2--2--2--3--2--0-----
B|--3--3--3-----------3--3--1--1--1--1--1--1--3--3--3--3--3--3--------3--3--3--3-----------3--
G|--2--2--2--------------2--------------------4--4--4--4--4--4--------2--2--2--2--------------
D|--------------------------2--2--2--2--2--2--5--5--5--5--5--5--------------------------------
A|--------------------------3--3--3--3--3--3--5--5--5--5--5--5--------------------------------
E|--------------------------------------------3--3--3--3--3--3--------------------------------

E|--------------------3--3--3--3--3--3--2--2--2--2--2--0--2--0-----3--------2-----------------
B|--1--1--1--1--1--1--3--3--3--3--3--3--3--3--3--3--3-----------3-----3--------3--------------
G|--------------------4--4--4--4--4--4--2--2--2--2--2--------------------2--------2--------2--
D|--2--2--2--2--2--2--5--5--5--5--5--5-----------------------------------------------0--------
A|--3--3--3--3--3--3--5--5--5--5--5--5--------------------------------------------------4-----
E|--------------------3--3--3--3--3--3--------------------------------------------------------

E|--------------3-----------3--------0--2--0-----3--------2--------------------------3--------
B|--3-----------3--3-----------3--------------3-----3--------3-----------3-----------3--3-----
G|-----------0--4-----0-----------2--------------------2--------2-----2-----------0--4-----2--
D|--------0-----5--------0-----------------------------------------------------0-----5--------
A|-----2--------5--------------------------------------------------4--------2--------5--------
E|--------------3--------------------------------------------------------------------3--------

E|-----3--------0--2--0-----3--------2--------------------------3-----------3-----------2-----
B|--------3--------------3-----3--------3-----------3-----------3--3-----------3--------3-----
G|-----------2--------------------2--------2-----2-----------0--4-----2-----------2-----2-----
D|--0-----------------------------------------------------0-----5--------0-----------0-----0--
A|--------------------------------------------4--------2--------5-----------------------------
E|--------------------------------------------------------------3-----------------------------

E|--------------------------------------------3--2-----3--2-----3--2-----2--------------------
B|-----3--------3-----3-----------3--------3--------3--------3--------3--3--------3--------3--
G|--2--------2-----------2-----2--------2--------------------------------2-----2--------2-----
D|--------2--------4--------------------------------------------------------0--------2--------
A|--------------------------4--------2--------------------------------------------------------
E|--------------------------------------------------------------------------------------------

E|--------------------------------3--2-----3--2-----3--2-----3--3--3--3--3--3--0--2--2--2--2--
B|-----3-----------3-----------3--------3--------3--------3--3--3--3--3--3--3--------3--3--3--
G|--------2-----2-----------2--------------------------------4--4--4--4--4--4--------2--2--2--
D|--4--------------------0-----------------------------------5--5--5--5--5--5-----------------
A|-----------4--------2--------------------------------------5--5--5--5--5--5-----------------
E|-----------------------------------------------------------3--3--3--3--3--3-----------------

E|--2--3--2--0-----------------------3--3--3--3--3--3--0--2--2--2--2--2--3--2--0--2--0--2--2--
B|--3-----------3--1--1--1--1--1--1--3--3--3--3--3--3--------3--3--3--3--------------------3--
G|--2--------------------------------4--4--4--4--4--4--------2--2--2--2--------------------2--
D|-----------------2--2--2--2--2--2--5--5--5--5--5--5-----------------------------------------
A|-----------------3--3--3--3--3--3--5--5--5--5--5--5-----------------------------------------
E|-----------------------------------3--3--3--3--3--3-----------------------------------------

E|--2--2--2--0--3--2--0-----------------------3--3--3--3--3--3--2--2--2--2--------3--------2--
B|--3--3--3--------------3--1--1--1--1--1--1--3--3--3--3--3--3--3--3--3-----3--------3--------
G|--2--2--2-----------------------------------4--4--4--4--4--4--2--2--2--------2--------2-----
D|--------------------------2--2--2--2--2--2--5--5--5--5--5--5--------------------------------
A|--------------------------3--3--3--3--3--3--5--5--5--5--5--5--------------------------------
E|--------------------------------------------3--3--3--3--3--3--------------------------------

E|-----------5--------6--------5--------5--7--------8--------7-----------10-------11-------10-
B|--3-----3-----6--------6--------6-----------8--------8--------8-----8-----11-------11-------
G|-----2-----------5--------5--------5-----------7--------7--------7-----------10-------10----
D|--------------------------------------------------------------------------------------------
A|--------------------------------------------------------------------------------------------
E|--------------------------------------------------------------------------------------------

E|--------10-12-------13-------12-------12-14-------15-------14-------14-12-------13-------10-
B|--11----------13-------13-------13----------15-------15-------15----------13-------13-------
G|-----10----------12-------12-------12----------14-------14-------14----------12-------12----
D|--------------------------------------------------------------------------------------------
A|--------------------------------------------------------------------------------------------
E|--------------------------------------------------------------------------------------------

E|--------11-------7--------8--------5--------6--------2--2-----------3--------2-----------5--
B|--11-------11-------8--------8--------6--------6-----3-----3-----------3--------3-----------
G|-----10-------10-------7--------7--------5--------5--2--------2-----------2--------2--0-----
D|-----------------------------------------------------------------0--------------------------
A|--------------------------------------------------------------------------------------------
E|--------------------------------------------------------------------------------------------

E|--3--2--0--------2--2--2--2--
B|-----------3-----3--3--3--3--
G|--------------2--2--2--2--2--
D|-----------------------------
A|-----------------------------
E|-----------------------------

tabs and chords, guitar tabs, music contests, music covers, songsterr, reverbnation, renditions, tabulature, bollywood chords, ultimate guitar, yousician, guitar lessons, torrins, fender, gibson, acoustic guitar, electric guitar, youtube covers, gootar, guitar tuner, A-Z tabs, 911 tabs