Dreamer Deceiver - Judas Priest - Guitar Tabs

Guitar Rhythm
    
                                                                                                                                                                                                                                                                                                                                                                                                                                                                                                                                                                                                 
E|-----------------0----------------|
B|--------0-----0-------------------|
G|-----------0----------------------|
D|-----2----------------------------|
A|----------------------------------|
E|--0-------------------------------|

    
                                                                                                                                                                                                                                                                                                                                                                                                                                                                                                                                                                                                                                                                                                                                                                                                                                                                                                                                                                                                                                                                                                                                                                                              
E|-----------------0-----------------0----------|------------------------------------0----|
B|--------------0-----------------0-----0-----0-|---------0-----------0--------0----------|
G|--------0--0--------0-----0--------------0----|------0-----------0--------------0-------|
D|-----2-----------------0-----2----------------|---5-----------4-----------2-------------|
A|----------------------------------------------|3-----------2----------------------------|
E|--0-------------------------------------------|------------------------0----------------|

    
                                                                                                                                                                                                                                                                                                                                                                                                                                                                                                                                                                                                                                                                                                                                                                                                                                                                                                                                                                                                                                                                                                                                                                                              
E|-----------------0--------------------0----------|------------------------------------0----|
B|--------------0-----0--------------------0-----0-|---------0-----------0--------0----------|
G|--------0--0-----------0-----0-----0--------0----|------0-----------0--------------0-------|
D|-----2--------------------0-----2----------------|---5-----------4-----------2-------------|
A|-------------------------------------------------|3-----------2----------------------------|
E|--0----------------------------------------------|------------------------0----------------|

    
                                                                                                                                                                                                                                                                                                                                                                                                                                                                                                                                                                                                                                                                                                                                                                                                                                                                                                                                                                                                                                                                                                                                                                                              
E|-----------------------------------------0-------|------------------------------------0----|
B|-----------0--------------------0-----0-----0----|---------0--------------------0----------|
G|-----0-----------------0-----------0-----------0-|---0-----------------0-----------0-------|
D|--0-----2-----------0--------2-------------------|0-----2-----------0--------2-------------|
A|-----------------5-------------------------------|---------------5-------------------------|
E|--------------3-----------0----------------------|------------3-----------0----------------|

    
                                                                                                                                                                                                                                                                                                                                                                                                                                                                                                                                                                                                                                                                                                                                                                                                                                                                                                                                                                                                                                                                                                                                                                                              
E|-------------------------------------------------|---------0-------------------------------|
B|-----------0-----------------------1-------------|-----------------------------------------|
G|-----0--------------------------2--------------0-|---0-----------------------0-------------|
D|--0-----2--------0-----0-----2--------------2----|------2--------------4-----------4-------|
A|--------------------2-----0--------------2-------|------------------5-----5--------------5-|
E|--------------3-----------------------0----------|0----------------------------------------|

    
                                                                                                                                                                                                                                                                                                                                                                                                                                                                                                                                                                                                                                                                                                                                                                                                                                                                                                                                                                                                                                                                                                                                                                                              
E|-----------0-------------------------------|---------0-------------------------------|
B|-------------------------------------------|-----------------------------------------|
G|-----0-----------------------0-------------|---0-----------------------0-------------|
D|--------2--------------4-----------4-------|------2--------------4-----------4-------|
A|--------------------5-----5--------------5-|------------------5-----5--------------5-|
E|--0----------------------------------------|0----------------------------------------|

    
                                                                                                                                                                                                                                                                                                                                                                                                                                                                                                                                                                                                                                                                                                                                                                                                                                                                                                                                                                                                                                                                                                                                                                                              
E|-----------0-------------------------------|---------0-------------------------------|
B|-------------------------------------------|-----------------------------------------|
G|-----0-----------------------0-------------|---0-----------------------0-------------|
D|--------2--------------4-----------4-------|------2--------------4-----------4-------|
A|--------------------5-----5--------------5-|------------------5-----5--------------5-|
E|--0----------------------------------------|0----------------------------------------|

    
                                                                                                                                                                                                                                                                                                                                                                                                                                                                                                                                                                                                                                                                                                                                                                                                                                                                                                                                                                                                                                                                                                                                                                                              
E|-----------0-------------------|---------3-------------------------|
B|-------------------------------|---------0-----------------7-------|
G|-----0-------------------------|---0-----0--------------0----------|
D|--------2----------------------|------2--------------4-------------|
A|--------------------5----------|------------------5----------------|
E|--0----------------------------|0----------------------------------|

    
                                                                                                                                                                                                                                                                                                                                                                                                                                                                                                                                                                                                                                                                                                                                                                                                                                                                                                                                                                                                                                                                                                                                                                                              
E|-----------3-------------------------|---------3-------------------------|
B|-----------0-----------------7-------|---------0-----------------7-------|
G|-----0-----0--------------0----------|---0-----0--------------0----------|
D|--------2--------------4-------------|------2--------------4-------------|
A|--------------------5----------------|------------------5----------------|
E|--0----------------------------------|0----------------------------------|

    
                                                                                                                                                                                                                                                                                                                                                                                                                                                                                                                                                                                                                                                                                                                                                                                                                                                                                                                                                                                                                                                                                                                                                                                              
E|-----------3-------------------|---------0-------------------------------|
B|-----------0-------------------|-----------------------------------------|
G|-----0-----0-------------------|---0-----------------------0-------------|
D|--------2-----------0----------|------2--------------4-----------4-------|
A|-------------------------------|------------------5-----5--------------5-|
E|--0----------------------------|0----------------------------------------|

    
                                                                                                                                                                                                                                                                                                                                                                                                                                                                                                                                                                                                                                                                                                                                                                                                                                                                                                                                                                                                                                                                                                                                                                                              
E|-----------0-------------------------------|---------0-------------------------------|
B|-------------------------------------------|-----------------------------------------|
G|-----0-----------------------0-------------|---0-----------------------0-------------|
D|--------2--------------4-----------4-------|------2--------------4-----------4-------|
A|--------------------5-----5--------------5-|------------------5-----5--------------5-|
E|--0----------------------------------------|0----------------------------------------|

    
                                                                                                                                                                                                                                                                                                                                                                                                                                                                                                                                                                                                                                                                                                                                                                                                                                                                                                                                                                                                                                                                                                                                                                                              
E|-----------0-------------------|---------3-------------------------|
B|-------------------------------|---------0-----------------7-------|
G|-----0-------------------------|---0-----0--------------0----------|
D|--------2----------------------|------2--------------4-------------|
A|--------------------5----------|------------------5----------------|
E|--0----------------------------|0----------------------------------|

    
                                                                                                                                                                                                                                                                                                                                                                                                                                                                                                                                                                                                                                                                                                                                                                                                                                                                                                                                                                                                                                                                                                                                                                                              
E|-----------3-------------------------|---------3-------------------------|
B|-----------0-----------------7-------|---------0-----------------7-------|
G|-----0-----0--------------0----------|---0-----0--------------0----------|
D|--------2--------------4-------------|------2--------------4-------------|
A|--------------------5----------------|------------------5----------------|
E|--0----------------------------------|0----------------------------------|

    
                                                                                                                                                                                                                                                                                                                                                                                                                                                                                                                                                                                                                                                                                                                                                                                                                                                                                                                                                                                                                                                                                                                                                                                              
E|-----------3-------------------|---------0-------------------------------|
B|-----------0-------------------|-----------------------------------------|
G|-----0-----0-------------------|---0-----------------------0-------------|
D|--------2-----------0----------|------2--------------4-----------4-------|
A|-------------------------------|------------------5-----5--------------5-|
E|--0----------------------------|0----------------------------------------|

    
                                                                                                                                                                                                                                                                                                                                                                                                                                                                                                                                                                                                                                                                                                                                                                                                                                                                                                                                                                                                                                                                                                                                                                                              
E|-----------0-------------------------------|---------0-------------------------------|
B|-------------------------------------------|-----------------------------------------|
G|-----0-----------------------0-------------|---0-----------------------0-------------|
D|--------2--------------4-----------4-------|------2--------------4-----------4-------|
A|--------------------5-----5--------------5-|------------------5-----5--------------5-|
E|--0----------------------------------------|0----------------------------------------|

    
                                                                                                                                                                                                                                                                                                                                                                                                                                                                                                                                                                                                                                                                                                                                                                                                                                                                                                                                                                                                                                                                                                                                                                                              
E|-----------0-------------------|---------3-------------------------|
B|-------------------------------|---------0-----------------7-------|
G|-----0-------------------------|---0-----0--------------0----------|
D|--------2----------------------|------2--------------4-------------|
A|--------------------5----------|------------------5----------------|
E|--0----------------------------|0----------------------------------|

    
                                                                                                                                                                                                                                                                                                                                                                                                                                                                                                                                                                                                                                                                                                                                                                                                                                                                                                                                                                                                                                                                                                                                                                                              
E|-----------3-------------------------|---------3-------------------------|
B|-----------0-----------------7-------|---------0-----------------7-------|
G|-----0-----0--------------0----------|---0-----0--------------0----------|
D|--------2--------------4-------------|------2--------------4-------------|
A|--------------------5----------------|------------------5----------------|
E|--0----------------------------------|0----------------------------------|

    
                                                                                                                                                                                                                                                                                                                                                                                                                                                                                                                                                                                                                                                                                                                                                                                                                                                                                                                                                                                                                                                                                                                                                                                              
E|-----------3-------------------------|0--------0-----0--2--2-----3-----2-----0-|
B|-----------0-----------------0-------|0-----0--0-----0--3--3-------------------|
G|-----0-----0--------------------2----|0-----0--0-----0--2----------------------|
D|--------2-----------------0----------|4-----4--4--------0----------------------|
A|--------------------5----------------|2-----------------0----------------------|
E|--0----------------------------------|0----------------------------------------|

    
    C                                                                                                                                                                                                                                                                                                Emadd9                                                                                                                                                                                                                                                                                             C                                                                                                                                                                                                                                                                                                Emadd9                                                                                                                                                                                                                                                                                             
E|--------0--------0--------0--------0-|------0--------0--2--2-----3-----2-----0-|
B|-----1--1-----1--1-----0--0-----0--0-|------0--------0--3--3-------------------|
G|-----0--0-----0--0-----0--0-----0--0-|------0--------0--2----------------------|
D|-----2--2-----2--2-----4--4-----4--4-|------4-----------0----------------------|
A|--3--3--3--3--3--3--2--2--2--2--2--2-|2-----2--2--------0----------------------|
E|--3--------3--------0--------0-------|0--------0-------------------------------|

    
    C                                                                                                                                                                                                                                                                                                Emadd9                                                                                                                                                                                                                                                                                             C                                                                                                                                                                                                                                                                                                Emadd9                                                                                                                                                                                                                                                                                             
E|--------0--------0--------0--------0-|------0--------0--2--2-----3-----2-----0-|
B|-----1--1-----1--1-----0--0-----0--0-|------0--------0--3--3-------------------|
G|-----0--0-----0--0-----0--0-----0--0-|------0--------0--2----------------------|
D|-----2--2-----2--2-----4--4-----4--4-|------4-----------0----------------------|
A|--3--3--3--3--3--3--2--2--2--2--2--2-|2-----2--2--------0----------------------|
E|--3--------3--------0--------0-------|0--------0-------------------------------|

    
    C                                                                                                                                                                                                                                                                                                Emadd9                                                                                                                                                                                                                                                                                             C                                                                                                                                                                                                                                                                                                Emadd9                                                                                                                                                                                                                                                                                             
E|--------0--------0--------0--------0-|------0--------0--2--2-----3-----2-----0-|
B|-----1--1-----1--1-----0--0-----0--0-|------0--------0--3--3-------------------|
G|-----0--0-----0--0-----0--0-----0--0-|------0--------0--2----------------------|
D|-----2--2-----2--2-----4--4-----4--4-|------4-----------0----------------------|
A|--3--3--3--3--3--3--2--2--2--2--2--2-|2-----2--2--------0----------------------|
E|--3--------3--------0--------0-------|0--------0-------------------------------|

    
    C                                                                                                                                                                                                                                                                                                Emadd9                                                                                                                                                                                                                                                                                             C                                                                                                                                                                                                                                                                                                Emadd9                                                                                                                                                                                                                                                                                             
E|--------0--------0--------0--------0-|------0--------0--2--2-----3-----2-----0-|
B|-----1--1-----1--1-----0--0-----0--0-|------0--------0--3--3-------------------|
G|-----0--0-----0--0-----0--0-----0--0-|------0--------0--2----------------------|
D|-----2--2-----2--2-----4--4-----4--4-|------4-----------0----------------------|
A|--3--3--3--3--3--3--2--2--2--2--2--2-|2-----2--2--------0----------------------|
E|--3--------3--------0--------0-------|0--------0-------------------------------|

    
    C                                                                                                                                                                                                                                                                                                Emadd9                                                                                                                                                                                                                                                                                             C                                                                                                                                                                                                                                                                                                Emadd9                                                                                                                                                                                                                                                                                             
E|--------0--------0--------0--------0-|------0--------0--2--2-----3-----2-----0-|
B|-----1--1-----1--1-----0--0-----0--0-|------0--------0--3--3-------------------|
G|-----0--0-----0--0-----0--0-----0--0-|------0--------0--2----------------------|
D|-----2--2-----2--2-----4--4-----4--4-|------4-----------0----------------------|
A|--3--3--3--3--3--3--2--2--2--2--2--2-|2-----2--2--------0----------------------|
E|--3--------3--------0--------0-------|0--------0-------------------------------|

    
    C                                                                                                                                                                                                                                                                                                Emadd9                                                                                                                                                                                                                                                                                             C                                                                                                                                                                                                                                                                                                Emadd9                                                                                                                                                                                                                                                                                             
E|--------0--------0--------0--------0-|------0--------0--2--2-----3-----2-----0-|
B|-----1--1-----1--1-----0--0-----0--0-|------0--------0--3--3-------------------|
G|-----0--0-----0--0-----0--0-----0--0-|------0--------0--2----------------------|
D|-----2--2-----2--2-----4--4-----4--4-|------4-----------0----------------------|
A|--3--3--3--3--3--3--2--2--2--2--2--2-|2-----2--2--------0----------------------|
E|--3--------3--------0--------0-------|0--------0-------------------------------|

    
    C                                                                                                                                                                                                                                                                                                Emadd9                                                                                                                                                                                                                                                                                             C                                                                                                                                                                                                                                                                                                Emadd9                                                                                                                                                                                                                                                                                             
E|--------0--------0--------0--------0-|------0--------0--2--2-----3-----2-----0-|
B|-----1--1-----1--1-----0--0-----0--0-|------0--------0--3--3-------------------|
G|-----0--0-----0--0-----0--0-----0--0-|------0--------0--2----------------------|
D|-----2--2-----2--2-----4--4-----4--4-|------4-----------0----------------------|
A|--3--3--3--3--3--3--2--2--2--2--2--2-|2-----2--2--------0----------------------|
E|--3--------3--------0--------0-------|0--------0-------------------------------|

    
    C                                                                                                                                                                                                                                                                                                Emadd9                                                                                                                                                                                                                                                                                             C                                                                                                                                                                                                                                                                                                Emadd9                                                                                                                                                                                                                                                                                             
E|--------0--------0--------0--------0-|------0--------0--2--2-----3-----2-----0-|
B|-----1--1-----1--1-----0--0-----0--0-|------0--------0--3--3-------------------|
G|-----0--0-----0--0-----0--0-----0--0-|------0--------0--2----------------------|
D|-----2--2-----2--2-----4--4-----4--4-|------4-----------0----------------------|
A|--3--3--3--3--3--3--2--2--2--2--2--2-|2-----2--2--------0----------------------|
E|--3--------3--------0--------0-------|0--------0-------------------------------|

    
    C                                                                                                                                                                                                                                                                                                Emadd9                                                                                                                                                                                                                                                                                             C                                                                                                                                                                                                                                                                                                Emadd9                                                                                                                                                                                                                                                                                             
E|--------0--------0--------0--------0-|------0--------0--2--2-----3-----2-----0-|
B|-----1--1-----1--1-----0--0-----0--0-|------0--------0--3--3-------------------|
G|-----0--0-----0--0-----0--0-----0--0-|------0--------0--2----------------------|
D|-----2--2-----2--2-----4--4-----4--4-|------4-----------0----------------------|
A|--3--3--3--3--3--3--2--2--2--2--2--2-|2-----2--2--------0----------------------|
E|--3--------3--------0--------0-------|0--------0-------------------------------|

    
    C                                                                                                                                                                                                                                                                                                Emadd9                                                                                                                                                                                                                                                                                             C                                                                                                                                                                                                                                                                                                Emadd9                                                                                                                                                                                                                                                                                             
E|--------0--------0--------0--------0-|------0--------0--2--2-----3-----2-----0-|
B|-----1--1-----1--1-----0--0-----0--0-|------0--------0--3--3-------------------|
G|-----0--0-----0--0-----0--0-----0--0-|------0--------0--2----------------------|
D|-----2--2-----2--2-----4--4-----4--4-|------4-----------0----------------------|
A|--3--3--3--3--3--3--2--2--2--2--2--2-|2-----2--2--------0----------------------|
E|--3--------3--------0--------0-------|0--------0-------------------------------|

    
    C                                                                                                                                                                                                                                                                                                Emadd9                                                                                                                                                                                                                                                                                             C                                                                                                                                                                                                                                                                                                Emadd9                                                                                                                                                                                                                                                                                             
E|--------0--------0--------0--------0-|------0--------0--2--2-----3-----2-----0-|
B|-----1--1-----1--1-----0--0-----0--0-|------0--------0--3--3-------------------|
G|-----0--0-----0--0-----0--0-----0--0-|------0--------0--2----------------------|
D|-----2--2-----2--2-----4--4-----4--4-|------4-----------0----------------------|
A|--3--3--3--3--3--3--2--2--2--2--2--2-|2-----2--2--------0----------------------|
E|--3--------3--------0--------0-------|0--------0-------------------------------|

    
    C                                                                                                                                                                                                                                                                                                Emadd9                                                                                                                                                                                                                                                                                             C                                                                                                                                                                                                                                                                                                Emadd9                                                                                                                                                                                                                                                                                             
E|--------0--------0--------0--------0-|------0--------0--2--2-----3-----2-----0-|
B|-----1--1-----1--1-----0--0-----0--0-|------0--------0--3--3-------------------|
G|-----0--0-----0--0-----0--0-----0--0-|------0--------0--2----------------------|
D|-----2--2-----2--2-----4--4-----4--4-|------4-----------0----------------------|
A|--3--3--3--3--3--3--2--2--2--2--2--2-|2-----2--2--------0----------------------|
E|--3--------3--------0--------0-------|0--------0-------------------------------|

About Dreamer Deceiver : The song is known for showing off Rob Halford's full vocal range . It was performed by the band on The Old Grey Whistle Test in 1975 . The 2-part medley was released as a single in Japan in 1976 . The first song "I – Dreamer The lyrics describe a mystical figure who takes the narrator up through the sky . This song segues into the next song, "Deceiver", via a long, high pitched scream by Halford . It was released in 1976. It was released as part of album Sad Wings of Destiny. The genre is heavy metal progressive rock space rock. The track was release in 1976. It is related to the album(s) - Sad Wings of Destiny. The track has an affiliation to the band(s) - Judas Priest.

About Judas Priest : Judas Priest formed in West Bromwich, West Midlands in 1969 . They have sold over 50 million copies of their albums . The band had struggled with indifferent record production and a lack of commercial success until 1980 . The current line-up consists of Rob Halford, guitarists Glenn Tipton and Richie Faulkner, bassist Ian Hill and drummer Scott Travis . The American singer Tim "Ripper" Owens replaced Halford in 1996 . Judas Priest's image of leather, spikes, and other taboo articles of clothing were widely influential during the glam metal era of the 1980s . The Guardian referred to British Steel as the record that defines heavy metal . Halford's operatic vocal style and twin guitar sound of Their most notable albums include British Steel. Their music is influenced by genres - heavy metal.

About Sad Wings of Destiny : It is considered the album on which Judas Priest consolidated their sound and image . It was the band's only album to feature drummer Alan Moore . The centrepiece "Victim of Changes" is an eight-minute track featuring heavy riffing trading off with high-pitched vocals, extended guitar leads, and a slow, moody breakdown . The album displays a wide variety of styles, moods and textures . Sad Wings of Destiny had a positive reception but weak sales . The band recorded their first two albums with independent Gull label Gull under tight budgets . Breaking their contract resulted in the rights to Sad Wings Of Destiny and its demo recordings . Sad Wings of Destiny's most popular songs include The Ripper. It had a contribution from notable artists like Sad Wings of Destiny,Alan Moore. It had an affiliation to bands - Judas Priest. Its music is influenced by genres - heavy metal.

tabs and chords, guitar tabs, music transcription, music technology, deep learning, music information retrieval, transcribe into tabs & chords, chordify, music renditions, songsterr, reverbnation, tabulature, bollywood chords, ultimate guitar, yousician, guitar lessons, acoustic guitar, electric guitar, guitar tuner, 911 tabs