Draw Me Close To You - Guitar Tabs

(/) Slide Up  (\) Slide Down  (h) Hammer On  (p) Pull Off  (b) Bend (r) Release (v) Vibrato (x) Muted

Tabs for Song : 
BPM : 200

Song lyrics here 
E|--------6--------------------------------------------------------------------------------------------
B|--2--5--------2--3-----------2--3--12----9--5--------9--10-12-9--10-------------10-9--7--5--7--2-----
G|--------------------------------------------------------------------7--7--------------------------7--
D|-----------------------------------------------------------------------------------------------------
A|-----------------------------------------------------------------------------------------------------
E|-----------------------------------------------------------------------------------------------------

E|--------v------6----------------------------------
B|--------2--5-----2--3--------------10-9--7--9--10-
G|--------------------------------------------------
D|--------------------------------------------------
A|--------------------------------------------------
E|--------------------------------------------------

E|-----------9--7--------------------------9--7-----------------------------9--7--------------------------5-5h7------------
B|--------------------9--10----------------------9--10----10-12-5-----------------9--10-------------10-10----------9--10-
G|-----------------------------------------------------------------------------------------------------------------------
D|-----------------------------------------------------------------------------------------------------------------------
A|-----------------------------------------------------------------------------------------------------------------------
E|-----------------------------------------------------------------------------------------------------------------------

Song lyrics here 
E|--
B|--
G|--
D|--
A|--
E|--

Use manual mode to free up cursor. Paste any tab in acousterr tab maker and we'll play it !!!

About Strong Tower : An enhanced deluxe edition of this album was released on March 20, 2007 . The title track of this record, "Strong Tower", was once in the Top 5 on ChristianRock.net . The title track, "Strong Tower", is used as a walk-up song by an outfielder for Texas Rangers and an outfielder Matt Murton for Japan's Hanshin Tigers . The song also made it to Rock Band as a DLC on The album was nominated for Praise & Worship Album of the Year at the 37th GMA Dove Awards . The title song was also nominated for W Strong Tower's most popular songs include Strong Tower. It had an affiliation to bands - Strong Tower. Its music is influenced by genres - christian rock , alternative rock , contemporary worship music.

tabs and chords, guitar tabs, music transcription, music technology, deep learning, music information retrieval, transcribe into tabs & chords, chordify, music renditions, songsterr, reverbnation, tabulature, bollywood chords, ultimate guitar, yousician, guitar lessons, acoustic guitar, electric guitar, guitar tuner, 911 tabs