Guitar Tabs for Drake & Lil Baby - Yes Indeed

(/) Slide Up  (\) Slide Down  (h) Hammer On  (p) Pull Off  (b) Bend (r) Release (v) Vibrato (x) Muted

Tabs & Chords

Check Track 2 for Chord Positions 

    Fm          A#m   Fm          A#m   Fm    C#    Fm    A#m   Fm          A#m   Fm          
E|--------------6-----------------6-----------------------9-----------------6-----------------
B|--6-----8--9--------6-----8--9--------6-----9-----6-----------6-----8--9--------6-----8--9--
G|--------------------------------------------------------------------------------------------
D|--------------------------------------------------------------------------------------------
A|--------------------------------------------------------------------------------------------
E|--------------------------------------------------------------------------------------------

    A#m   Fm    C#    Fm    A#m   Fm          C#    Fm       A#m      Fm    C#    Fm    A#m   Fm 
E|--6-----------------------9-----------------6-----------------6-----------------------9--------
B|--------6-----9-----6-----------6-----8--9--------6-----8--9--------6-----9-----6-----------6--
G|-----------------------------------------------------------------------------------------------
D|-----------------------------------------------------------------------------------------------
A|-----------------------------------------------------------------------------------------------
E|-----------------------------------------------------------------------------------------------

             A#m   Fm          A#m   Fm    C#    Fm    A#m   Fm       C#       Fm          A#m
E|-----------6-----------------6-----------------------9-----------------6-----------------6--
B|-----8--9--------6-----8--9--------6-----9-----6-----------6-----8--9--------6-----8--9-----
G|--------------------------------------------------------------------------------------------
D|--------------------------------------------------------------------------------------------
A|--------------------------------------------------------------------------------------------
E|--------------------------------------------------------------------------------------------

       Fm    C#    Fm    A#m
E|-----------------------9--
B|-----6-----9-----6--------
G|--------------------------
D|--------------------------
A|--------------------------
E|--------------------------

Guitar Tabs for Drake & Lil Baby - Yes Indeed






    Fm          A#m   Fm          A#m   Fm    C#    Fm    A#m   Fm          A#m   Fm          
E|--1-----------1-----1-----------1-----1-----4-----1-----1-----1-----------1-----1-----------
B|--1-----------2-----1-----------2-----1-----6-----1-----2-----1-----------2-----1-----------
G|--1-----------3-----1-----------3-----1-----6-----1-----3-----1-----------3-----1-----------
D|--3-----------3-----3-----------3-----3-----6-----3-----3-----3-----------3-----3-----------
A|--3-----------1-----3-----------1-----3-----4-----3-----1-----3-----------1-----3-----------
E|--1-----------------1-----------------1-----------1-----------1-----------------1-----------

    A#m   Fm    C#    Fm    A#m   Fm          C#    Fm       A#m      Fm    C#    Fm    A#m   Fm 
E|--1-----1-----4-----1-----1-----1-----------4-----1--------1--------1-----4-----1-----1-----1--
B|--2-----1-----6-----1-----2-----1-----------6-----1--------2--------1-----6-----1-----2-----1--
G|--3-----1-----6-----1-----3-----1-----------6-----1--------3--------1-----6-----1-----3-----1--
D|--3-----3-----6-----3-----3-----3-----------6-----3--------3--------3-----6-----3-----3-----3--
A|--1-----3-----4-----3-----1-----3-----------4-----3--------1--------3-----4-----3-----1-----3--
E|--------1-----------1-----------1-----------------1-----------------1-----------1-----------1--

             A#m   Fm          A#m   Fm    C#    Fm    A#m   Fm       C#       Fm          A#m
E|-----------1-----1-----------1-----1-----4-----1-----1-----1--------4--------1-----------1--
B|-----------2-----1-----------2-----1-----6-----1-----2-----1--------6--------1-----------2--
G|-----------3-----1-----------3-----1-----6-----1-----3-----1--------6--------1-----------3--
D|-----------3-----3-----------3-----3-----6-----3-----3-----3--------6--------3-----------3--
A|-----------1-----3-----------1-----3-----4-----3-----1-----3--------4--------3-----------1--
E|-----------------1-----------------1-----------1-----------1-----------------1--------------

       Fm    C#    Fm    A#m
E|-----1-----4-----1-----1--
B|-----1-----6-----1-----2--
G|-----1-----6-----1-----3--
D|-----3-----6-----3-----3--
A|-----3-----4-----3-----1--
E|-----1-----------1--------

tabs and chords, guitar tabs, music transcription, music technology, deep learning, music information retrieval, transcribe into tabs & chords, chordify, music renditions, songsterr, reverbnation, tabulature, bollywood chords, ultimate guitar, yousician, guitar lessons, acoustic guitar, electric guitar, guitar tuner, 911 tabs