Guitar Tabs for Drake - In My Feelings

(/) Slide Up  (\) Slide Down  (h) Hammer On  (p) Pull Off  (b) Bend (r) Release (v) Vibrato (x) Muted

Tabs & Chords

Check Track 2 for Chord Positions 

    C#          Cm          C#          Cm    C#          C                                      
E|-----------------------------------------------------------------------------------------------
B|-----------------------------------------------------------------------------------------------
G|--------------------------------------------17----15-------15-17----15-------15-17----15-------
D|--17----18----------------17----18----------------------18----------------18----------------18-
A|--------------18----18----------------18-------------------------------------------------------
E|-----------------------------------------------------------------------------------------------

             Cm                C#          C                                               Cm 
E|--------------------------------------------------------------------------------------------
B|--------------------------------------------------------------------------------------------
G|--15-17-18-17-15-15-------15-17----15-------15-17----15-------15-17----15-------15-18----17-
D|-----------------------18----------------18----------------18----------------18-------------
A|--------------------------------------------------------------------------------------------
E|--------------------------------------------------------------------------------------------

                   C#             C                                   Cm                      
E|--------------------------------------------------------------------------------------------
B|--------------------------------------------------------------------------------------------
G|--15-------15----17----15-------15-17----15-------15-17----15-------15-17-18-17-15-15-------
D|-----18----------------------18----------------18----------------18----------------------18-
A|--------------------------------------------------------------------------------------------
E|--------------------------------------------------------------------------------------------

       C#          C                                                  Cm             Cm       
E|--------------------------------------------------------------------------------------------
B|--------------------------------------------------------------------------------------------
G|--15-17----15-------15----------------15-17----15-------15-18----17-15-------15----17-17-17-
D|-----------------18----17----15----18----------------18----------------18-------------------
A|--------------------------------------------------------------------------------------------
E|--------------------------------------------------------------------------------------------

                                                                      C#                Cm    
E|--------------------------------------------------------------------------------------------
B|--------------------------------------------------------------------------------------------
G|-----15-15-15----15-17-15----------15----15-17-15----------15----15-17-15----------15----15-
D|--------------18-------------18-18----18-------------18-18----18-------------18-18----18----
A|--------------------------------------------------------------------------------------------
E|--------------------------------------------------------------------------------------------

                                                                      G#       C#             
E|--------------------------------------------------------------------------------------------
B|--------------------------------------------------------------------------------------------
G|--17-15----------15----15-17-15----------15----15-17-15----------15----15-17-15----15-17-17-
D|-----------18-18----18-------------18-18----18-------------18-18----18----------------------
A|--------------------------------------------------------------------------------------------
E|--------------------------------------------------------------------------------------------

    Cm             C                                            Cm             C#             
E|--------------------------------------------------------------------------------------------
B|--------------------------------------------------------------------------------------------
G|--17-17-17----15-15-15----15-17-15----------15----15-17-15----------15----15-17-15----------
D|-----------------------18-------------18-18----18-------------18-18----18-------------18-18-
A|--------------------------------------------------------------------------------------------
E|--------------------------------------------------------------------------------------------

          Cm             C                                      Cm                      G#    C# 
E|-----------------------------------------------------------------------------------------------
B|-----------------------------------------------------------------------------------------------
G|--15----15-17-15----------15----15-17-15----------15----15-17-15----------15-------------------
D|-----18-------------18-18----18-------------18-18----18-------------18-18-------------17----18-
A|--------------------------------------------------------------------------------18-------------
E|-----------------------------------------------------------------------------------------------

       Cm          C#          Cm    C#             C                                         
E|--------------------------------------------------------------------------------------------
B|--------------------------------------------------------------------------------------------
G|-----------------------------------17----15-------15-17----15-------15-17----15-------15-17-
D|-----------------17----18----------------------18----------------18----------------18-------
A|-----18----18----------------18-------------------------------------------------------------
E|--------------------------------------------------------------------------------------------

    Cm                C#                C                                            Cm       
E|--------------------------------------------------------------------------------------------
B|--------------------------------------------------------------------------------------------
G|--18-17-15-15-------15-17----15-------15-17----15-------15-17----15-------15-18----17-15----
D|-----------------18----------------18----------------18----------------18----------------18-
A|--------------------------------------------------------------------------------------------
E|--------------------------------------------------------------------------------------------

             C#          C                                               Cm                C# 
E|--------------------------------------------------------------------------------------------
B|--------------------------------------------------------------------------------------------
G|-----15----17----15-------15-17----15-------15-17----15-------15-17-18-17-15-15-------15-17-
D|-----------------------18----------------18----------------18----------------------18-------
A|--------------------------------------------------------------------------------------------
E|--------------------------------------------------------------------------------------------

             C                                   Cm                            C#          Cm 
E|-----------------------------------------------------------------------------15----16-------
B|-----------------------------------------------------------------------------------------16-
G|-----15-------15----------------15-17----15-------15-18----17-15-------15-------------------
D|-----------18----17----15----18----------------18----------------18-------------------------
A|--------------------------------------------------------------------------------------------
E|--------------------------------------------------------------------------------------------

             C#          Cm    C#             C                                         Cm    
E|-----------15----16-------------------------------------------------------------------------
B|-----16----------------16-------------------------------------------------------------------
G|-----------------------------17----15-------15-17----15-------15-17----15-------15-17-18-17-
D|-----------------------------------------18----------------18----------------18-------------
A|--------------------------------------------------------------------------------------------
E|--------------------------------------------------------------------------------------------

                C#                C                                                  Cm       
E|--------------------------------------------------------------------------------------------
B|--------------------------------------------------------------------------------------------
G|--15-15-------15-17----15-------15-17----15-------15-17----15-------15-18----17-15-------15-
D|-----------18----------------18----------------18----------------18----------------18-------
A|--------------------------------------------------------------------------------------------
E|--------------------------------------------------------------------------------------------

       C#          C                                            Cm                   C#       
E|--------------------------------------------------------------------------------------------
B|--------------------------------------------------------------------------------------------
G|-----17----15-------15-17----15-------15-17----15-------15-17-18-17-15-15-------15-17----15-
D|-----------------18----------------18----------------18----------------------18-------------
A|--------------------------------------------------------------------------------------------
E|--------------------------------------------------------------------------------------------

       C                             C#          Cm          C#       
E|-----------------------------------15----16----------------15----16-
B|-----------------------------------------------16----16-------------
G|--------15----------------15-17-------------------------------------
D|-----18----17----15----18-------------------------------------------
A|--------------------------------------------------------------------
E|--------------------------------------------------------------------

Guitar Tabs for Drake - In My Feelings






    C#          Cm          C#          Cm    C#          C                                      
E|--4-----------3-----------4-----------3-----4-----------0--------------------------------------
B|--6-----------4-----------6-----------4-----6-----------1--------------------------------------
G|--6-----------5-----------6-----------5-----6-----------0--------------------------------------
D|--6-----------5-----------6-----------5-----6-----------2--------------------------------------
A|--4-----------3-----------4-----------3-----4-----------3--------------------------------------
E|-----------------------------------------------------------------------------------------------

             Cm                C#          C                                               Cm 
E|-----------3-----------------4-----------0-----------------------------------------------3--
B|-----------4-----------------6-----------1-----------------------------------------------4--
G|-----------5-----------------6-----------0-----------------------------------------------5--
D|-----------5-----------------6-----------2-----------------------------------------------5--
A|-----------3-----------------4-----------3-----------------------------------------------3--
E|--------------------------------------------------------------------------------------------

                   C#             C                                   Cm                      
E|-----------------4--------------0-----------------------------------3-----------------------
B|-----------------6--------------1-----------------------------------4-----------------------
G|-----------------6--------------0-----------------------------------5-----------------------
D|-----------------6--------------2-----------------------------------5-----------------------
A|-----------------4--------------3-----------------------------------3-----------------------
E|--------------------------------------------------------------------------------------------

       C#          C                                                  Cm             Cm       
E|-----4-----------0--------------------------------------------------3--------------3--------
B|-----6-----------1--------------------------------------------------4--------------4--------
G|-----6-----------0--------------------------------------------------5--------------5--------
D|-----6-----------2--------------------------------------------------5--------------5--------
A|-----4-----------3--------------------------------------------------3--------------3--------
E|--------------------------------------------------------------------------------------------

                                                                      C#                Cm    
E|--------------------------------------------------------------------4-----------------3-----
B|--------------------------------------------------------------------6-----------------4-----
G|--------------------------------------------------------------------6-----------------5-----
D|--------------------------------------------------------------------6-----------------5-----
A|--------------------------------------------------------------------4-----------------3-----
E|--------------------------------------------------------------------------------------------

                                                                      G#       C#             
E|--------------------------------------------------------------------4--------4--------------
B|--------------------------------------------------------------------4--------6--------------
G|--------------------------------------------------------------------5--------6--------------
D|--------------------------------------------------------------------6--------6--------------
A|--------------------------------------------------------------------6--------4--------------
E|--------------------------------------------------------------------4-----------------------

    Cm             C                                            Cm             C#             
E|--3--------------0--------------------------------------------3--------------4--------------
B|--4--------------1--------------------------------------------4--------------6--------------
G|--5--------------0--------------------------------------------5--------------6--------------
D|--5--------------2--------------------------------------------5--------------6--------------
A|--3--------------3--------------------------------------------3--------------4--------------
E|--------------------------------------------------------------------------------------------

          Cm             C                                      Cm                      G#    C# 
E|--------3--------------0--------------------------------------3-----------------------4-----4--
B|--------4--------------1--------------------------------------4-----------------------4-----6--
G|--------5--------------0--------------------------------------5-----------------------5-----6--
D|--------5--------------2--------------------------------------5-----------------------6-----6--
A|--------3--------------3--------------------------------------3-----------------------6-----4--
E|--------------------------------------------------------------------------------------4--------

       Cm          C#          Cm    C#             C                                         
E|-----3-----------4-----------3-----4--------------0-----------------------------------------
B|-----4-----------6-----------4-----6--------------1-----------------------------------------
G|-----5-----------6-----------5-----6--------------0-----------------------------------------
D|-----5-----------6-----------5-----6--------------2-----------------------------------------
A|-----3-----------4-----------3-----4--------------3-----------------------------------------
E|--------------------------------------------------------------------------------------------

    Cm                C#                C                                            Cm       
E|--3-----------------4-----------------0--------------------------------------------3--------
B|--4-----------------6-----------------1--------------------------------------------4--------
G|--5-----------------6-----------------0--------------------------------------------5--------
D|--5-----------------6-----------------2--------------------------------------------5--------
A|--3-----------------4-----------------3--------------------------------------------3--------
E|--------------------------------------------------------------------------------------------

             C#          C                                               Cm                C# 
E|-----------4-----------0-----------------------------------------------3-----------------4--
B|-----------6-----------1-----------------------------------------------4-----------------6--
G|-----------6-----------0-----------------------------------------------5-----------------6--
D|-----------6-----------2-----------------------------------------------5-----------------6--
A|-----------4-----------3-----------------------------------------------3-----------------4--
E|--------------------------------------------------------------------------------------------

             C                                   Cm                            C#          Cm 
E|-----------0-----------------------------------3-----------------------------4-----------3--
B|-----------1-----------------------------------4-----------------------------6-----------4--
G|-----------0-----------------------------------5-----------------------------6-----------5--
D|-----------2-----------------------------------5-----------------------------6-----------5--
A|-----------3-----------------------------------3-----------------------------4-----------3--
E|--------------------------------------------------------------------------------------------

             C#          Cm    C#             C                                         Cm    
E|-----------4-----------3-----4--------------0-----------------------------------------3-----
B|-----------6-----------4-----6--------------1-----------------------------------------4-----
G|-----------6-----------5-----6--------------0-----------------------------------------5-----
D|-----------6-----------5-----6--------------2-----------------------------------------5-----
A|-----------4-----------3-----4--------------3-----------------------------------------3-----
E|--------------------------------------------------------------------------------------------

                C#                C                                                  Cm       
E|--------------4-----------------0--------------------------------------------------3--------
B|--------------6-----------------1--------------------------------------------------4--------
G|--------------6-----------------0--------------------------------------------------5--------
D|--------------6-----------------2--------------------------------------------------5--------
A|--------------4-----------------3--------------------------------------------------3--------
E|--------------------------------------------------------------------------------------------

       C#          C                                            Cm                   C#       
E|-----4-----------0--------------------------------------------3--------------------4--------
B|-----6-----------1--------------------------------------------4--------------------6--------
G|-----6-----------0--------------------------------------------5--------------------6--------
D|-----6-----------2--------------------------------------------5--------------------6--------
A|-----4-----------3--------------------------------------------3--------------------4--------
E|--------------------------------------------------------------------------------------------

       C                             C#          Cm          C#       
E|-----0-----------------------------4-----------3-----------4--------
B|-----1-----------------------------6-----------4-----------6--------
G|-----0-----------------------------6-----------5-----------6--------
D|-----2-----------------------------6-----------5-----------6--------
A|-----3-----------------------------4-----------3-----------4--------
E|--------------------------------------------------------------------

tabs and chords, guitar tabs, music transcription, music technology, deep learning, music information retrieval, transcribe into tabs & chords, chordify, music renditions, songsterr, reverbnation, tabulature, bollywood chords, ultimate guitar, yousician, guitar lessons, acoustic guitar, electric guitar, guitar tuner, 911 tabs