Guitar Tabs for Dr Who

(/) Slide Up  (\) Slide Down  (h) Hammer On  (p) Pull Off  (b) Bend (r) Release (v) Vibrato

Tabs for Song : 

Song lyrics here
E|---------------------3/8--7--10/-3/7--3------------------------3/8--7-----7--------------10-12-10-8--10----12-10-8--10-7---------------7/3--------------------
B|--------------------------------------------0--3--1--0--1--0-----------8-----10-8--7--8-----------------8-----------------10-8--7--8--------0--3--1--0--1--0--
G|--------------------------------------------------------------------------------------------------------------------------------------------------------------
D|--------------------------------------------------------------------------------------------------------------------------------------------------------------
A|--2--5--2--5--2--5--------------------------------------------------------------------------------------------------------------------------------------------
E|--------------------------------------------------------------------------------------------------------------------------------------------------------------


Song lyrics here
E|---3/8--7--10/-3/7--8--7--10/-3/7--
B|-----------------------------------
G|-----------------------------------
D|-----------------------------------
A|-----------------------------------
E|-----------------------------------

Now supports capo and sound effects for vibrato/pull-off/hammer/bends etc !!! Checkout help section
tabs and chords, guitar tabs, music transcription, music technology, deep learning, music information retrieval, transcribe into tabs & chords, chordify, music renditions, songsterr, reverbnation, tabulature, bollywood chords, ultimate guitar, yousician, guitar lessons, acoustic guitar, electric guitar, guitar tuner, 911 tabs