Guitar Tabs for Double Double Gospel Song

(/) Slide Up  (\) Slide Down  (h) Hammer On  (p) Pull Off  (b) Bend (r) Release (v) Vibrato (x) Muted

Tabs & Chords
BPM : 125.0
Check Track 2 for Chord Positions 

    G                                            C                                D              
E|--------------------------------------------------0--------0--------0-----------10-10----------
B|--8--0-----0-----0--0-----0-----0-----0--0--0--------------------------------------------------
G|--------------------------------------------------------0--------0--------------------7--------
D|--------------0--------------------0-----------10----10-------10----------10-7-----------------
A|--------------------------------------------------------------------------------------------9--
E|-----------------------------------------------------------------------------------------------

    G                                               C                       D                 
E|--------------------------------------------------0--------0--------------------------------
B|--8--8--0-----0-----8-----8--0--------0-----0--------------------0-----------0--------------
G|-----------------------0--------7-----------------------0-----7--------0--7--------0--------
D|-----------------7-----------------------------------10-------------7-----------7--------7--
A|--------------------------------------------------------------------------------------------
E|--------------------------------------------------------------------------------------------

                G                                      C                    D                 G  
E|-----------------------------------------------------------0--0-----0-----------------------7--
B|--------0-----0-----0-----0-----0--0-----0-----0-----------------------------------7-----------
G|-----------------------------0--------------7-----------------------------7--7--------7--------
D|--7--7-----------7-----7-----------------------------10----------------------------------------
A|-----------------------------------------------------------------------------------------------
E|-----------------------------------------------------------------------------------------------

                                        C                       D     
E|--------------------------------------------8-----8-----7--------0--
B|--0-----0-----0--0-----------0-----0--------------------------7-----
G|-----------------------0--7-----------------------------------------
D|--------------------7-----------------10-------10-------------------
A|--------------------------------------------------------------------
E|--------------------------------------------------------------------

Guitar Tabs for Double Double Gospel Song






    G                                            C                                D              
E|--3--------------------------------------------0--------------------------------2--------------
B|--3--------------------------------------------1--------------------------------3--------------
G|--4--------------------------------------------0--------------------------------2--------------
D|--5--------------------------------------------2--------------------------------0--------------
A|--5--------------------------------------------3-----------------------------------------------
E|--3--------------------------------------------------------------------------------------------

    G                                               C                       D                 
E|--3-----------------------------------------------0-----------------------2-----------------
B|--3-----------------------------------------------1-----------------------3-----------------
G|--4-----------------------------------------------0-----------------------2-----------------
D|--5-----------------------------------------------2-----------------------0-----------------
A|--5-----------------------------------------------3-----------------------------------------
E|--3-----------------------------------------------------------------------------------------

                G                                      C                    D                 G  
E|--------------3--------------------------------------0--------------------2-----------------3--
B|--------------3--------------------------------------1--------------------3-----------------3--
G|--------------4--------------------------------------0--------------------2-----------------4--
D|--------------5--------------------------------------2--------------------0-----------------5--
A|--------------5--------------------------------------3--------------------------------------5--
E|--------------3-----------------------------------------------------------------------------3--

                                        C                       D     
E|--------------------------------------0-----------------------2-----
B|--------------------------------------1-----------------------3-----
G|--------------------------------------0-----------------------2-----
D|--------------------------------------2-----------------------0-----
A|--------------------------------------3-----------------------------
E|--------------------------------------------------------------------

tabs and chords, guitar tabs, music transcription, music technology, deep learning, music information retrieval, transcribe into tabs & chords, chordify, music renditions, songsterr, reverbnation, tabulature, bollywood chords, ultimate guitar, yousician, guitar lessons, acoustic guitar, electric guitar, guitar tuner, 911 tabs