Guitar Tabs for Doom

(/) Slide Up  (\) Slide Down  (h) Hammer On  (p) Pull Off  (b) Bend (r) Release (v) Vibrato (x) Muted

Tabs for Song : 
BPM 250




Song lyrics here
E|-----2--------------0-----------0--------------------------12-10-12-10-12-14-12-10-12-12----------
B|-----3--------------2-----------0--------12-10-12-10-12----------------------------------12-10-12-
G|-----2--------------2-----------1-----------------------------------------------------------------
D|-----0--------------2-----------2-----------------------------------------------------------------
A|--------------------0-----------2-----------------------------------------------------------------
E|--------------------------------0-----------------------------------------------------------------

Song lyrics here
---
E|-----2--------0--------0-----------3--------2--------0--------0--------3-----------12-10-12-14-15-14-12-10-12-0--0-----
B|-----3--------2--------1-----------3--------3--------2--------1--------3-----12-10----------------------------0--0--
G|-----2--------2--------0-----------4--------2--------2--------0--------4--------------------------------------1--1--
D|-----0--------2--------2-----------5--------0--------2--------2--------5--------------------------------------2--2--
A|--------------0--------3-----------5-----------------0--------3--------5--------------------------------------2--2--
E|-----------------------------------3-----------------------------------3--------------------------------------0--0--
---
---
Paste any tab in acousterr's tab maker and we'll play it !!!---
Now supports capo and sound effects for vibrato/pull-off/hammer/bends/mutes etc !!! Checkout help section---
---













tabs and chords, guitar tabs, music transcription, music technology, deep learning, music information retrieval, transcribe into tabs & chords, chordify, music renditions, songsterr, reverbnation, tabulature, bollywood chords, ultimate guitar, yousician, guitar lessons, acoustic guitar, electric guitar, guitar tuner, 911 tabs