Guitar Tabs for Doo

(/) Slide Up  (\) Slide Down  (h) Hammer On  (p) Pull Off  (b) Bend (r) Release (v) Vibrato (x) Muted

Tabs for Song : 
BPM : 400

Song lyrics here 
E|--6-----8-----------------------6-----8-----------8-----10----------10----11----------
B|--------------8-----------------------------8-----------------8-----------------11----
G|--------------------10----8-----------------------------------------------------------
D|--------------------------------------------------------------------------------------
A|--------------------------------------------------------------------------------------
E|--------------------------------------------------------------------------------------

E|-----------------------------------------------------------
B|--------------------11-------------------------------------
G|--12----10----12----------7-----8-----10----5-----3-----5--
D|-----------------------------------------------------------
A|-----------------------------------------------------------
E|-----------------------------------------------------------

E|--------------------------------------------------------------------------------------
B|--------------------------------------------------------------------------------------
G|--3-----5-----7-----5-----7-----8-----7-----8-----10----12----10----12----13----14----
D|--------------------------------------------------------------------------------------
A|--------------------------------------------------------------------------------------
E|--------------------------------------------------------------------------------------

E|-----------------------------------------------------------------------------
B|--------------------------------------------15----11-------------------------
G|--15----------------------15----17----------------------13----12-------------
D|--------17----------------------------17----------------------------13----12-
A|--------------20----18-------------------------------------------------------
E|-----------------------------------------------------------------------------

E|--------------------------------------------------------------------------------------
B|-----8--------------------------------------------------------------------------------
G|-----------8-----7-----5--------------------------------------------------------------
D|-----------------------------6-----5--------------------------------------------------
A|-----------------------------------------6-----5-----3-----3-----5-----6-----6-----8--
E|--------------------------------------------------------------------------------------

E|--------------------------------------------------------------------------------------
B|--------------------------------------------------------------------------------------
G|--------------------------------------------------------5-----7-----8-----12----10----
D|--------------------------------------5-----6-----8-----------------------------------
A|--10----8-----5-----5-----6-----8-----------------------------------------------------
E|--------------------------------------------------------------------------------------

E|-----------------
B|-----------------
G|--8-----7-----8--
D|-----------------
A|-----------------
E|-----------------

E|--------------------------------------------------------------------------------------
B|--------------------------------------------------------------------------------------
G|--------------0-----1-----3-----------------1-----3-----5-----------------3-----5-----
D|--0-----1-----------------------1-----3-----------------------3-----5-----------------
A|--------------------------------------------------------------------------------------
E|--------------------------------------------------------------------------------------

E|-----------------------------------------------------------
B|-----------------------------------------------------------
G|--8-----------------5-----8-----10----------------8-----10-
D|--------5-----8-----------------------8-----10-------------
A|-----------------------------------------------------------
E|-----------------------------------------------------------

E|--------3--4--6--------4--6--8--------6--8-----11-------8--11-13-11-13-11-13-13-11-
B|--3--4-----------4--6-----------6--8--------------8--11----------------------------
G|-----------------------------------------------------------------------------------
D|-----------------------------------------------------------------------------------
A|-----------------------------------------------------------------------------------
E|-----------------------------------------------------------------------------------

E|--------------------------------8--------10-------11----------10-------13-------15-------15----
B|--13-13-11-6-----6--6--4--3--------------------------------------------------------------------
G|-----------------------------5-----5--7-----7--8-----8--12-7-----7--10----10-12----12-15----13-
D|-----------------------------------------------------------------------------------------------
A|-----------------------------------------------------------------------------------------------
E|-----------------------------------------------------------------------------------------------

E|--------------------------------------------------------------------------------------------
B|--------------------------------------------------------------------------------------------
G|--13----13-12-7-----10-8--10-12-7--10-8--7--8--7-----7--8--7-----------------7--8-----------
D|--------------------------------------------------10----------10-8--6--8--10----------------
A|--------------------------------------------------------------------------------------------
E|--------------------------------------------------------------------------------------------

Song lyrics here 
E|--
B|--
G|--
D|--
A|--
E|--

Use manual mode to free up cursor. Paste any tab in acousterr tab maker and we'll play it !!!
tabs and chords, guitar tabs, music transcription, music technology, deep learning, music information retrieval, transcribe into tabs & chords, chordify, music renditions, songsterr, reverbnation, tabulature, bollywood chords, ultimate guitar, yousician, guitar lessons, acoustic guitar, electric guitar, guitar tuner, 911 tabs