Guitar Tabs for Dont Know What To Do - Blackpink

(/) Slide Up  (\) Slide Down  (h) Hammer On  (p) Pull Off  (b) Bend (r) Release (v) Vibrato (x) Muted

Tabs for Song : 
BPM : 200
capo at 2nd fret
Song lyrics here 
E|-----------------------------------0--------------------------------------------------------------------------0--------
B|-----3--------3--------3--3--3--3--------0-----------0--------------------0-----3--------3--------3--3--3--3-----------
G|--0--0-----0-----0--0--0--------------0-----------0-----0--------------0-----0--0-----0-----0--0--0---------------0h5--
D|--------2--------------------------------------2-----------2-----2--2--------------2--------------------------2--------
A|-----------------------3--------------------------------------------------------3-----------------3--------------------
E|-----3--------------------------------------0--------------------------------------------------------------------------

E|-----------------------------------------------------0-----------------------------------------------------------------
B|--------------------3--------3-----------3-----3--3-----3-----0-----------0--------------------0-----0--1--------1-----
G|---4h2-----------0--0-----0-----------0--0-----------------0-----------0-----0--------------0-----0-----0-----0--------
D|---0h---------0--------2-----------2--------2--------2--------------2-----------2-----2--2-----------------2-----------
A|-----------0--------3-----------3--------3--------------------------------------------------------------3--------------
E|-----------------------------------------------------------------0-----------------------------------------------------
                                                       PRECHORUS
E|-----------0--0-----3--3--0--2-----------2-----------------------7-----5-----------5-----3--------------------------
B|-----1--1--1--------------------------3-----3--------0--0--0--1--------------8--3--------------0--0--0--0--0--0-----
G|--0--------0-----0-----------------2-----------2--------------------------5-----2-----2--------0--------------------
D|--------------------------------0-----------------0-----------------------------0--------0--0-----------------------
A|-----------3--------------------------------------------------0-----0--------0--------------------------------------
E|-----------------------------------------------------------------------------------------------3--------3-----------

E|--------------------------------------7-----5-----------5-----3-----------------------------------------------------
B|-----------------------0--0--0--1-----------------8--3--------------0--0--0--0--0-----------------------0--0--0-----
G|---2h0--0--------------------------2-----------5-----2-----2--------0---------------2h0--0--------------------------
D|-----------------2-----------------------------------0--------0--0--------------------------------2-----------------
A|--------------2-----------------0--------0--------0--------------------------------------------2--------------------
E|-----3-----0--------0-----0-----------------------------------------3--------3--------3-----0--------0-----0--------

E|--------------------3--2--2-----------------------------------5---5h3------------0h3--------0--3-----0--3--3-----0--
B|---0h1--------1--1-----3-----------1--1--1---1p0--------0--0------0h---------3-----------3--------3-----------3-----
G|---2h------------------2-----2---------------0p-------------------0h---0--------------------------------------------
D|--------2--------------0--------0-----0-----------0-----------------------------------------------------------------
A|---0h------0-----0--------------------------------------------------------------------0-----------------------------
E|---------------------------------------------3p------3-----3------0h------0-----------------------------------------
                                                             CHORUS
E|--3-----0---5\7--7--7--7--7--------7--7--7--7--7--5--3--3--------------0-----3-----5-----7-----3-----7--------------
B|-----3------5\7--------------------7-----------------------------1-----1-----------------------1--------------0-----
G|------------5\7-----------------7-----------------------------0-----0--0--0-----0-----0-----0--0--0--------0-----0--
D|------------0\0--------------------0--------------------------------------------------------------------------------
A|-----------------------------------------------------------3-----------------------3--------------------------------
E|--------------------------------------------------------------------------------------------------------0-----------

E|--0-----3--7--7--7--7--7--5--3--3--------------0-----3-----5-----7-----3-----7-----------2--3------5\7--7--7--7--7--
B|--0--------0-----------0-----------------1-----1-----------------------1--------------3--3-----3---5\7--------------
G|--0--0-----0-----------0--------------0-----0--0--0-----0-----0-----0--0--0--------2-----2---------5\7--------------
D|--------------------------------------------------------------------------------0------------------0\0--------------
A|-----------------------------------3-----------------------3--------------------------------------------------------
E|-----------0--------------------------------------------------------------------------------------------------------

E|--7--5--3--------------------------------0--------------------------------------------------------------------------
B|--7--------------3--------0--3-----3--0--0--3--0--------0-----------0-----0-----0--------------3--------0--3-----3--
G|--7--------------0-----0-----0-----------0--------------0--------2--0--------2--0--2-----------0-----0-----0--------
D|--------------2-----2-----------2--------------------2--------2--------2--------------2-----2-----2-----------2-----
A|-----------3-----------------3-----------------------------2-----------------------------3-----------------3--------
E|--------------------------------------------------0-----------------0-----------------------------------------------

E|-----------------------------------------------------
B|--0-----------0-----0-----0--------0-----0-----0-----
G|-----------------2-----2--2--2--------2-----2--2--0--
D|-----0--0--0--0-----------------0--0-----------------
A|-----------------------------------------------------
E|-----------------------------------------------------



Song lyrics here 
E|--
B|--
G|--
D|--
A|--
E|--

Use manual mode to free up cursor. Paste any tab in acousterr tab maker and we'll play it !!!
tabs and chords, guitar tabs, music transcription, music technology, deep learning, music information retrieval, transcribe into tabs & chords, chordify, music renditions, songsterr, reverbnation, tabulature, bollywood chords, ultimate guitar, yousician, guitar lessons, acoustic guitar, electric guitar, guitar tuner, 911 tabs