Bass Tabs for Dixie High Fight School Song

(/) Slide Up  (\) Slide Down  (h) Hammer On  (p) Pull Off  (b) Bend (r) Release (v) Vibrato (x) Muted

G|--1-----0-----1--0--------------1-----1--------1--1-----------------5-----------------3-----3--0-----
D|-----1-----1--------3--1-----3-----1-----3--1--------1--1--2--2--3-----3--2--1-----3-----1--------1--
A|--------------------------4-----------------------------------------------------3--------------------
E|-----------------------------------------------------------------------------------------------------


G|--------0--3--1--0-----------1-----1--5--0--------------2-----3-----------------------1-----1--t------
D|--1-----------------3--1--------------------2-----3--------3--------------1--------1-----3-----------
A|--------------------------4-----4--------------3-----3-----------3--4--5--------1--------------3--3--
E|-----------------------------------------------------------------------------------------------------

G|--------------1--0--------------------------------0--------3-----------0-----1--1--3--4--1-----------
D|--0--2-----3--------3--1--0--------------0-----1-----3--1-----1--1--3-----1-----------------1--1--3--
A|--------3--------------------3--1--1--3-----1--------------------------------------------------------
E|-----------------------------------------------------------------------------------------------------

G|-----2--3--1--0--------0--1-----0-----1--0--------1--1-----------------5-----------------3-----3--0--
D|--4--------------3--1--------1-----1--------3--1--------1--1--2--2--3-----3--2--1-----3-----1--------
A|-----------------------------------------------------------------------------------3-----------------
E|-----------------------------------------------------------------------------------------------------

G|--------0--3--1--0--------1-----1-----1--5--0--------------2-----3--------------------1-----1--1--01
D|--1-----------------3--1-----------------------2-----3--------3--------------1-----1-----3--------
A|-----------------------------4-----4--------------3-----3-----------3--4--5-----1--------------0--
E|--------------------------------------------------------------------------------------------------


tabs and chords, guitar tabs, music transcription, music technology, deep learning, music information retrieval, transcribe into tabs & chords, chordify, music renditions, songsterr, reverbnation, tabulature, bollywood chords, ultimate guitar, yousician, guitar lessons, acoustic guitar, electric guitar, guitar tuner, 911 tabs