Guitar Tabs for Divine / Sailing / Time / Hymn (acoustic)

(/) Slide Up  (\) Slide Down  (h) Hammer On  (p) Pull Off  (b) Bend (r) Release (v) Vibrato (x) Muted
E|-----------------------------------------------------------------
B|--------------1--------------------1--------------1--------------
G|---0h2--------------------0-----------------0--------------0-----
D|-----------3--------2--------2-----------2--------------2--------
A|-----------------3--0--0--------0-----0--------0-----0--------0--
E|---1h---1--------------------------------------------------------

E|-----------------------------------------------------------------------
B|--------------1-----------------------------------1-----0--------------
G|---0h2--------------------0-----------------0--------------------0-----
D|-----------3--------2-----------2--------0--------------------0--------
A|-----------------3--3--3-----3-----0-----------------------------------
E|---1h---1-----------------------------3--------3-----3-----3--------3--

E|-----------------------------------------------------------------
B|--------------1--------------------1--------------1--------------
G|---0h2--------------------0-----------------0--------------0-----
D|-----------3--------2--------2-----------2--------------2--------
A|-----------------3--0--0--------0-----0--------0-----0--------0--
E|---1h---1--------------------------------------------------------

E|-----------------------------------------------------------------
B|--------------------------------------------------------1-----0--
G|---0h2-----------0-----------0-----------------0-----------------
D|---3h------3-----------2------------0h2-----------2-----------0--
A|-----------------------3--3-----3--------0-----------------------
E|---1h---1-----1-----1-----------------------3--------3-----3-----

E|-----------------------------------------------------------------
B|--------------1--------------------1--------------1--------------
G|---0h2--------------------0-----------------0--------------0-----
D|-----------3--------2--------2-----------2--------------2--------
A|-----------------3--0--0--------0-----0--------0-----0--------0--
E|---1h---1--------------------------------------------------------

E|--------------------------------------------------------------------
B|-----------1-----------------------------------1-----0--------------
G|--0--------------------0-----------------0--------------------0-----
D|--------3--------2-----------2--------0--------------------0--------
A|--------------3--3--3-----3-----0-----------------------------------
E|--1--1-----------------------------3--------3-----3-----3--------3--

E|--------------------------------------------------------------
B|-----------1--------------------1--------------1--------------
G|--0--------------------0-----------------0--------------0-----
D|--------3--------2--------2-----------2--------------2--------
A|--------------3--0--0--------0-----0--------0-----0--------0--
E|--1--1--------------------------------------------------------

E|--------------------------------------------------------------------
B|-----------1-----------------------------------1-----0--------------
G|--0--------------------0-----------------0--------------------0-----
D|--------3--------2-----------2--------0--------------------0--------
A|--------------3--3--3-----3-----0-----------------------------------
E|--1--1-----------------------------3--------3-----3-----3--------0--

E|--------------------------------------------------------------
B|-----------1--------------------1--------------1--------------
G|--0--------------------0-----------------0--------------0-----
D|--------3--------2--------2-----------2--------------2--------
A|--------------3--0--0--------0-----0--------0-----0--------0--
E|--1--1--------------------------------------------------------

E|--------------------------------------------------------------------
B|-----------1-----------------------------------1-----0--------------
G|--0--------------------0-----------------0--------------------0-----
D|--------3--------2-----------2--------0--------------------0--------
A|--------------3--3--3-----3-----0-----------------------------------
E|--1--1-----------------------------3--------3-----3-----3--------3--

E|-----------------------------------------------------------
B|--------------1-----------1-----------------------------1--
G|--0--------------2-----------------0--------------0--------
D|--------3--------------3-----2--------2--------0-----------2x
A|-----------------------------3--3--------0-----------------
E|--1--1-----1--------1-----------------------3--------3-----

E|--------------------------------------------------------------------------------3--------------------
B|--------------1-----------0-----1-----------------1--------1--------------1-----------------1-----0--
G|--0-----------------0-----------------------2--------------------------------------------------------
D|--------3--------------3-----0--------2--------------2--------------0-----------------0--------------
A|--------------------------------0--0-----0-----0--------3--------------------------------------------
E|--1--1-----1-----1--1-----3-----------------------------------3--3-----3-----3-----3-----3-----3-----

           FM7/C   Am7      FM7/C   C   Gadd11 (2x) 
to show my love 
    FM7/C     Am7
the deep deep flood
    FM7/C   C         Gadd11 (pattern continues)
and oceans flows from you
the deep deep love
is filling up the room
your innocent blood
has washed my guilty life 
in your presence God 
I'm completely satisfied 
    FM7/C        C    Gadd11
for you I sing I dance 
         FM7/C           C           Gadd11
and I rejoice in this divine romance
       FM7/C   FM7sus2/C   Am7
lift my heart and my hands 
        C  Gadd11   G
to show my love 
            FM7/C        C   Gadd11
and all for you I sing I dance
      FM7/C              C   Gadd11
and I rejoice in this divine romance
          FM7/C   FM7sus2/C   Am7
I lift my heart and my hands 
           Gadd11   G
to show my love
               FM7/C   Am7      FM7/C   C   Gadd11      FM7/C   C   Gadd11   
to show my love 
    Gadd11  C/E    Fadd9               C
I'm sailing on a ship that's bound for light
          C/E      Fadd9            C
I wrestle with the wind against the tide
          C/E      Fadd9           Am7
I leave it all behind to reach for more 
        Gadd11
sailing on 
             C/E     Fadd9             C
to where the water's running sweet and bright 
           C/E    Fadd9          C
The sun is rising in the eastern sky 
           C/E Fadd9               Am7
I leave it all behind to reach for more 
            Gadd11
I'm sailing on 
               Am7   Am7/B   Am7/C       Fadd9   C/E   Gadd11 (2X)
to Your golden shore
         C/E  Fadd9         C
the time is now for lifting souls
         C/E  Fadd9 Gadd11  Am7
the time is now for letting go 
   C/E  Am7  Fadd9        C
so from your skin to your core 
    Gadd11              C                   C/E
let light and love come rushing through the door 
    Fadd9             C
its time to make your stand
       C/E  Fadd9     Gadd11   Am7
to put your heart in greater hands 
        Gadd11 Fadd9      C/E      Gadd11 
so from your skin to your core let light and love
     C                   C/E
come rushing through the door 
     Fadd9          C
it's time to make a stand
              Fadd9          C
so put your heart in greater hands
   C         (x)Fadd9       Am7
so from your skin to your core
    Gadd11              C                   C/E   Fadd9   C/E   Gadd11
let light and love come rushing through the door
                          Fadd9   C/E    Gadd11   G
come rushing through your door
    C             C/E  C/B Am7
and what can wash away our sin
Fadd9           Am7      Gadd11   Am7      C/B
nothing but the blood of Jesus
    C                C/E         Am7
and what can make us whole again
Fadd9           Am7      Gadd11   Am7      C/B
nothing but the blood of Jesus 
C
oh precious is the flow
Gadd11                 C/E C/B
that makes me white as snow 
C  C/B   Am7        Gadd11
no other fount I know
   Fadd9           C/E      Gadd11   Am7 G
oh nothing but the blood of Jesus 
   Fadd9           Am7      G        Am7
no nothing but the blood of Jesus 
         Fadd9           C/E      G -> Outro
there is nothing but the blood of Jesus

Outro
E|--------3--------3--------3--0--
B|-----------------------------1--
G|-----2--------0--------0-----0--
D|--3--------2-----------------2--
A|-----------------------------3--
E|--------------------3-----------

Chords Outlines:
  Fm7/C  FM7sus2/C   Am7    Am7(alt)  Fadd9     C/E     C(alt)   Gadd11    C/B
E|--0--------0--------0--------3--------3--------3--------3--------3--------3--
B|--1--------1--------1--------1--------1--------1--------1--------1--------1--
G|--2--------0--------0--------0--------2--------0--------0--------0--------0--
D|--3--------3--------2--------2--------3--------2--------2--------0--------0--
A|--3--------3--------0--------0--------------------------3--------2--------2--
E|-----------------------------------------------------------------3-----------
tabs and chords, guitar tabs, music contests, music covers, songsterr, reverbnation, renditions, tabulature, bollywood chords, ultimate guitar, yousician, guitar lessons, torrins, fender, gibson, acoustic guitar, electric guitar, youtube covers, gootar, guitar tuner, A-Z tabs, 911 tabs