Bass Tabs for Dire Straits - Walk Of Life

Dire Straits - Walk Of Life

Intro
G|--------------------------
D|--------------------------
A|--7--------4--------------
E|-----4--5-----7--4--5--7--

G|--------------------------------------------------------
D|--------------------------------------------------------  2x
A|-----------------7-----7-----9-----9-----7--------------
E|--0--7--0--4--5-----5-----7-----7-----5-----7--5--4--2--

Verse
G|--------------------------------------------------------------------------------------------------
D|--------------------------------------------------------------------------------------------------
A|--------------------------------------------------------------------------------------------------
E|--0-----7-----0-----7-----0-----7-----0-----7-----0-----7------0-----7-----0-----7-----0----2--4--

G|-----------------------------------------------------------------------------
D|-----------------------------------------------------------------------------
A|--0-----7-----0-----7-----------------------------------7-----0-----7--------
E|--------------------------0-----7-----0-----4-----5-----------------------0~~

Chorus
G|-----------------------------------------------------------------------------------------------
D|-----------------------------------------------------------------------------------------------
A|--------------------9-----------------------7--------------------9-----------------------------
E|--0-----4--5--7-----------0-----7--4--5-----------0-----4--5--7--------5-----2-----7--5--4--2--

Interlude & End
G|-----------------------------------------------------------
D|-----------------------------------------------------------  
A|-----------------7--------------9-----------7--------------
E|--0--7--0--4--5-----5--0--5--7-----7--4--5-----7--5--4--2--


tabs and chords, guitar tabs, music transcription, music technology, deep learning, music information retrieval, transcribe into tabs & chords, chordify, music renditions, songsterr, reverbnation, tabulature, bollywood chords, ultimate guitar, yousician, guitar lessons, acoustic guitar, electric guitar, guitar tuner, 911 tabs