Bass Tabs for Dire Straits - Tunnel Of Love - Intro/the Carousel Waltz

BASS TAB
Dire Straits - Tunnel of Love - Intro/The Carousel Waltz

Intro
G|--------------------------------------------------------------
D|--------------------------------------------------------------
A|--5-----3-----5-----1-----3-----5--5-----3--3--5--5--5--1--3--
E|--------------------------------------1-----------------------

Verse
G|-----------------------------------------------------------------------------------------------------
D|-----------------------------------------------------------------------------------------------------  4x
A|--5-----5-----------------3-----3-----3-----3-----------------------------5-----5-----5-----3--3--3--
E|--------------1-----1-----------------------------3-----3-----3-----3--------------------------------

1st Pre-Chorus & 2nd Pre-Chorus
G|-----------------------------------------------------------------------------------------------------
D|--------------------------------------------------------------------3--------------------------------
A|--1-----1-----3-----3-----------------1-----1-----3-----3-----------------0--3--5-----5-----1-----3--
E|--------------------------1-----1--------------------------1-----1-----------------------------------

Chorus
G|-----------------------------------------------
D|-----------------------------------------------
A|--5-----5-----------3-----5-----5-----1-----3--
E|--------------1--------------------------------

2nd Verse & 3rd Verse
G|-----------------------------------------------------------------------------------------------------
D|-----------------------------------------------------------------------------------------------------  2x
A|--5-----5-----------------3-----3-----3-----3-----------------------------5-----5-----5-----3--3--3--
E|--------------1-----1-----------------------------3-----3-----3-----3--------------------------------

1st Special
G|-----------------------------------------------------------------------------------------------------
D|-----------------------------------------------------------------------------------------------------
A|--------------------------------------------------------3-----3-----3-----3-----3-----3-----3-----3--
E|--3---3/6--6---6\3--3---3/6--6---6\3--3------3/6--6--------------------------------------------------

G|-----------------------------------------------------------------------------------------
D|-----------3--2--------------------------------------------------------------------------  2x
A|-----------------3--5-----5-----5-----1-----3-----3-----3-----3-----1-----1-----1-----3--
E|--1-----1--------------------------------------------------1-----------------------------

Guitar Solo
G|--------------------------------------------------------------------------------------------------------------
D|--------------------------------------------------------------------------3-----------------------------------  2x
A|-----------3--3--0--3--0--5-----5-----1--1-----1-----3-----3-----------3--------1-----1-----1--1--3--3--3--3--
E|--1--1--------------------------------------1-----1--------------1--1-----------------------------------------

G|-----------------------------------------------
D|-----------------------------------------------
A|--5-----5-----------3-----5-----5-----1-----3--
E|--------------1--------------------------------

3rd Pre-Chorus
G|-----------------------------------------------------------------------------------------------
D|-----------------------------------------------------------------------------------------------
A|--1-----1-----3-----3----0------0-----1-----1-----3-----3-----3-----0--3--5-----5-----1-----3--
E|-----------------------------------------------------------------------------------------------

2nd Special
G|-----------------------------------------------------------------------------------------------------
D|-----------------------------------------------------------------------------------------------------
A|--------------------------------------------------------3-----3-----3-----3-----3-----3-----3-----3--
E|--3---3/6--6---6\3--3---3/6--6---6\3--3------3/6--6--------------------------------------------------

G|-----------------------------------------------------------------------------------------
D|-----------3--2--------------------------------------------------------------------------  Until the end
A|-----------------3--5-----5-----5-----1-----3-----3-----3-----3-----1-----1-----1-----3--
E|--1-----1--------------------------------------------------1-----------------------------
tabs and chords, guitar tabs, music transcription, music technology, deep learning, music information retrieval, transcribe into tabs & chords, chordify, music renditions, songsterr, reverbnation, tabulature, bollywood chords, ultimate guitar, yousician, guitar lessons, acoustic guitar, electric guitar, guitar tuner, 911 tabs