Bass Tabs for Dire Straits - So Far Away

BASS TAB
Dire Straits - So Far Away

Intro
G|-----------------------------------------------------------------------------------------
D|-----------------------------------------------------------------------------------------
A|-----------------------------------------------7--7--7--7--7--7--7--7--7--7--------------
E|--7--7--7--7--7--7--7--5--5--5--5--5--5--5--5--------------------------------4--4--5--5--

2nd Part Intro
G|-----------------------------------------------------------------------------------
D|-----------------------------------------------------------------------------------
A|-----------------------------------------7-----7-----7--------7-----7--------------
E|--7-----7-----7--------5-----5-----5-----------------------7-----------4--5--7-----

G|-----------------------------------------------------------------
D|-----------------------------------------------------------------
A|--------------------------------7-----7--------7-----7-----------
E|--7-----7-----5-----5-----5-----------------7-----------7--7--7--

Verse
G|--------------------------------------------------------------------
D|--------------------------------------------------------------------  2x
A|--7-----7--------------------------------------------7-----7-----7--
E|-----------4--5--7-----7-----7-----5--7-----7-----7-----------------

Chorus
G|--------------------------------------------------------------------
D|--------------------------------------------------------------------
A|-----------------------------7--------------------------------------
E|--5---5/9--9---9\7--7-----7--------4--5---5/9--9-----7-----7-----5--

After-Chorus Bond 
G|--------------------------------
D|--------------------------------
A|--7-----7--------7-----7--------
E|--------------7-----------4--5--
tabs and chords, guitar tabs, music transcription, music technology, deep learning, music information retrieval, transcribe into tabs & chords, chordify, music renditions, songsterr, reverbnation, tabulature, bollywood chords, ultimate guitar, yousician, guitar lessons, acoustic guitar, electric guitar, guitar tuner, 911 tabs