Bass Tabs for Dire Straits - Romeo And Juliet

Dire Straits - Romeo And Juliet

Intro & Pos-Chorus
G|-----------------------------
D|-----------------------------
A|--------1-----3-----1-----3--
E|--1--------------------------

Verse
G|-----------------------------------------------------------------------------
D|--------------------------------------------------------------3--------------  2x
A|--------5--------3-----------5-----1-----1--3-----1--3-----------3--1-----3--
E|--1--------------------1-----------------------------------1-----------------

Chorus
G|-----------------------------------------------------------------------------
D|-----------------------------------------------------------------------------
A|-----------3-----3--5-----5--3--1-----3-----------3-----3--5-----5--3--1--3--
E|--1-----1--------------------------------1-----1-----------------------------

G|-----------------------------------------------------------------------------
D|-----------------------------------------------------------------------------
A|-----------1-----1--5-----5--1-----------------------------1--3--5--3--------
E|--1-----1--------------------------3-----3--3-----5--6--------------------1--

After Last Verse
G|--------------------------------
D|--------------------------------
A|--1-----1--3-----3--1-----1--3--
E|--------------------------------

tabs and chords, guitar tabs, music transcription, music technology, deep learning, music information retrieval, transcribe into tabs & chords, chordify, music renditions, songsterr, reverbnation, tabulature, bollywood chords, ultimate guitar, yousician, guitar lessons, acoustic guitar, electric guitar, guitar tuner, 911 tabs