Bass Tabs for Dire Straits - Money For Nothing

Dire Straits - Money for Nothing

Intro & Verse
G|-----------------------------------------------------------------
D|-----------------------------------------------------------------
A|-----------------------3--1-----------------------1-----3-----5--
E|--3-----3-----3-----3--------0--1--3-----3--3--------------------

G|-----------------------------------------------------------------
D|-----------------------------------------------------5--3--------
A|--------------------------3--1-----------------------------5--3--
E|--3-----3--3-----3-----3--------0--1--3-----1--3-----------------

Chorus
G|--------------------------------------------------------------------------
D|--------------------------------------------------------------------------
A|--6-----6--6--------------------6-----6--6-----8-----8--8-----------------
E|-----------------6-----6--6--------------------------------1--3-----3--3--

G|--------------------------------------------------------------------------------
D|--------------------------------------------------------------------------------
A|--------------------3-----3--3--4--5-----5--5-----7-----7--7-----7--7--7--7---7/
E|--0--1--3-----3--3--------------------------------------------------------------




tabs and chords, guitar tabs, music contests, music covers, songsterr, reverbnation, renditions, tabulature, bollywood chords, ultimate guitar, yousician, guitar lessons, torrins, fender, gibson, acoustic guitar, electric guitar, youtube covers, gootar, guitar tuner, A-Z tabs, 911 tabs