Bass Tabs for Dire Straits - Down On The Waterline

Dire Straits - Down on The Waterline

Intro
G|-----------------------------------
D|-----------------------------------
A|-----------------------------------
E|--3--3-----3--3-----7--7-----7--7--

Verse
G|-----------------------------------------------------
D|-----4-----------------------------4-----------------  2x
A|--2--------------7--5--2-----2--------2-----2-----0--
E|--------5--5--5--------------------------------------

Chorus
G|-----------4--2--------------------------------
D|--------4--------4--------4--------------------
A|--2--------------------4-----2--0--4--5--6--7--
E|-----------------------------------------------

After Chorus Bond
G|-----------------------
D|---------------------4\
A|--2-----2-----0--2-----
E|-----------------------

1st Guitar Solo
G|-----------------------------------------------------
D|-----------------------------------------------------
A|-----------------------------2-----2-----0--2-----2--
E|--3-----3-----2--3-----3-----------------------------

G|-----------------------------------------------------
D|-----------------------------------------------------
A|-----------------------------------------------------
E|--3-----3-----2--5-----5-----7-----7-----5--7-----7--

2nd Guitar Solo
G|-----------------------------------------------------
D|-----------------------------------------------------
A|-----------------------------2-----2-----0--2-----2--
E|--3-----3-----2--3-----3-----------------------------

G|-----------------------------------------------------------------------------------------------
D|-----------------------------------------------------------------------------------8--7-----5--
A|------------------------------7\4-----4-----4--------4-----3-----3-----------3-----------8-----
E|--3-----3-----2--5-----5--------------------------4-----4--------------2--3--------------------

G|--------------------------------------------------------------
D|-----------------5-----5--3-----------------------8--7-----5--
A|-----------------------------3-----3--------3-----------8-----
E|--3-----3-----3-----------------------6--3--------------------

G|-----------------------------------------------------------------
D|-----------------------------5--7--------------7--------------7--
A|--5-----5-----3-----5-----5--------------------------------------
E|-----------------5-----------------5-----5--------5-----5--------
tabs and chords, guitar tabs, music contests, music covers, songsterr, reverbnation, renditions, tabulature, bollywood chords, ultimate guitar, yousician, guitar lessons, torrins, fender, gibson, acoustic guitar, electric guitar, youtube covers, gootar, guitar tuner, A-Z tabs, 911 tabs