Bass Tabs for Dire Straits - Brother In Arms

Dire Straits - Brother In Arms

Intro
G|-----------------------
D|-----------------------
A|-----2-----2-----2-----
E|--4-----4-----4-----4--

Verse
G|--------------------------------------------------------------------------------3--
D|-----------4-----4--4-----4--------------------------------------1--------1--------
A|--------4--------------------2--------2-----2--1-----1--------4--------1-----------
E|--0--2-----------------------------2--------------------4--------------------------

G|--------------------------------------------------------3--------------------------------
D|--1--2--------4-----------------------1--------1--------------1--2-----------4-----------
A|-----------------4-----------------4--------1--------------------------4-----------4-----
E|--------------------2-----2--3--4-----------------------------------------------------2--

G|-----------------------------
D|--------------------------4--
A|-----------------------------
E|--2--3--4-----0-----2--------

Verse Bond
G|-----------------------------------------------------------------------------
D|-----------------------------------------------------1--------1--------------
A|--------------4--------------------------------4-----------------2-----------
E|--4-----0-----------0-----0--2--4-----2--0--------------4-----------4-----2--

2nd Verse
G|-----------------------------------------------------------------------
D|-----------1--------1-----2-----4-----------------1--------1--2--2--2--
A|--------2--------2-----------------4-----------2--------2--------------
E|--2--4--------2-----------------------2-----4--------2-----------------

Solo and Till the End
G|--------------------
D|-------------------- ...
A|-----------4--------
E|--4--2--0-----0--2--
tabs and chords, guitar tabs, music transcription, music technology, deep learning, music information retrieval, transcribe into tabs & chords, chordify, music renditions, songsterr, reverbnation, tabulature, bollywood chords, ultimate guitar, yousician, guitar lessons, acoustic guitar, electric guitar, guitar tuner, 911 tabs