Guitar Tabs for Different Now - Chastity Belt Tabs

(/) Slide Up  (\) Slide Down  (h) Hammer On  (p) Pull Off  (b) Bend (r) Release (v) Vibrato

Tabs for Song : 

Intro and In Between Verses
E|--------------------------------------------------------------------------------------------------------------------------------------------------------------------------------------------
B|--10-12-------------------------------------------10-12-------------------------------8--------10-12----------------------------------------------------------------------------------------
G|--------9-----9-----9-----7-----7-----7-----7-----------9-----9-----9-----7-----7--------------------9-----9-----9-----7-----7-----7-----7-----9-----9-----9-----9-----7-----9-----7-----5--
D|--------------------------------------------------------------------------------------------------------------------------------------------------------------------------------------------
A|--------------------------------------------------------------------------------------------------------------------------------------------------------------------------------------------
E|--------------------------------------------------------------------------------------------------------------------------------------------------------------------------------------------

Chorus and Verses - Variations of these power chords (listen to the song and you'll here the pattern, it's what's played when she sings)
E|--------------------------------------------------------------------------------------------------------------------------------------------------------------------------------------------
B|--------------------------------------------------------------------------------------------------------------------------------------------------------------------------------------------
G|--5--------5-----5-----5--5--7-----7--7--7--------5--------5-----5-----5--5--7-----7--7--7--------------------------------------------------------------------------------------------------
D|--5--------5-----5-----5--5--7-----7--7--7--------5--------5-----5-----5--5--7-----7--7--7--------3--------3-----3-----3--3--3-----3--3-----3--3--3-----3--3--3--3-----3--3--2-----2--2--2--
A|--3--------3-----3-----3--3--5-----5--5--5--------3--------3-----3-----3--3--5-----5--5--5--------3--------3-----3-----3--3--3-----3--3-----3--3--3-----3--3--3--3-----3--3--2-----2--2--2--
E|--------------------------------------------------------------------------------------------------1--------1-----1-----1--1--1-----1--1-----1--1--1-----1--1--1--1-----1--1--0-----0--0--0--

Second Bit in between verses (after the first pattern is played for a bit, she plays this and then it goes to the chorus/verse)

E|--------------8-----------------------8-----------------------8--------------------------------
B|--------8--10----10-8-----------8--10----10-8-----------8--10----10-8--------------------------
G|--7--9-----------------9--7--9-----------------9--7--9-----------------9--7-----9-----7-----9--
D|-----------------------------------------------------------------------------------------------
A|-----------------------------------------------------------------------------------------------
E|-----------------------------------------------------------------------------------------------

This is the other lead part that plays while the first riff is being played
E|-----------------------------------------------
B|-----------------------------------------------
G|--------9-----9-----9-----------------------0--
D|--------------------------7-----7--------------
A|--------------------------------------7--------
E|-----------------------------------------------

This bit is played while during the 1st verse/chorus along with the rhythm guitar
You're hard on yourself...........but your stuck indoors and thinking poorly
E|--------------------------------------------------------------------------------------
B|--------13-------------------13----------------------13----------10-------------------
G|--12----------------12-------------------------12-------------------------9--------12-
D|--------------------------------------------------------------------------------------
A|--------------------------------------------------------------------------------------
E|--------------------------------------------------------------------------------------

This is played during the 2nd verse/chorus along with the rhythm
You're finding time

E|-----------------------------------------------------------------------------------------
B|--------13-------------------13----------------------13----------10----------------------
G|--12----------------12-------------------------12-------------------------9--------12----2x
D|-----------------------------------------------------------------------------------------
A|-----------------------------------------------------------------------------------------
E|-----------------------------------------------------------------------------------------

Take all of it
E|-----------------------------------------------------------------------------------------------------------------------------------------------------------------------------------------------------
B|-----------13----------15-------13-------------------------13----------10-------------------------------------13-------------15-------13-------------15-------13----------------10-------------------
G|--12-------------12----------------------12-------12-------------12-------------9--------12----------12-------------12-------------------------12----------------------12----------------9--------12-
D|-----------------------------------------------------------------------------------------------------------------------------------------------------------------------------------------------------
A|-----------------------------------------------------------------------------------------------------------------------------------------------------------------------------------------------------
E|-----------------------------------------------------------------------------------------------------------------------------------------------------------------------------------------------------


This bit is the lead bit that plays in the pre-choruses (I think the bit you said you were finding hard to figure out??)

E|--------------3-----------------------3-----------------------3-----
B|--------5--5-----5--------------5--5-----5--------------5--5-----5--
G|--5--5--------------5--5--5--5--------------5--5--5--5--------------
D|--------------------------------------------------------------------
A|--------------------------------------------------------------------
E|--------------------------------------------------------------------
tabs and chords, guitar tabs, music transcription, music technology, deep learning, music information retrieval, transcribe into tabs & chords, chordify, music renditions, songsterr, reverbnation, tabulature, bollywood chords, ultimate guitar, yousician, guitar lessons, acoustic guitar, electric guitar, guitar tuner, 911 tabs