Determination Symphony - Bass Tabs

(/) Slide Up  (\) Slide Down  (h) Hammer On  (p) Pull Off  (b) Bend (r) Release (v) Vibrato (x) Muted

Tabs for Song : 
BPM : 190

G|-------------------------|-----------------------|-----------------------|
D|-------------------------|-----------------------|-----------------------|
A|-------------------------|-----------------------|-----------------------|
D|-------------------------|-----------------------|-----------------------|

G|-------------------------|-----------------------|-----------------------|-----------------------|
D|-------------------------|-----------------------|-----------------------|-----------------------|
A|-------------------------|-----------------------|---------------------3-|---3--3--3--3--3--3--3-|
D|-----------------------2-|---2--2--2--2--2--2--2-|2--2--2--2--2--2--2----|-----------------------|

G|-------------------------|-----------------------|-----------------------|-----------------------|
D|-------------------------|-----------------------|-----------------------|-----------------------|
A|--3--3--3--3--3--3--3----|-----------------------|-----------------------|-----------------------|
D|-----------------------5-|---5--5--5--5--5--5--5-|5--5--5--5--5--5--5--0-|---0--0--0--0--0--0--0-|

G|-------------------------|-----------------------|-----------------------|-----------------------|
D|-------------------------|-----------------------|-----------------------|---------------------5-|
A|-------------------------|-----------------------|7--7--7--7--7--7--5--3-|---3--3--3--3--3--3----|
D|--0--0--0--0--0--0--0--2-|---2--2--2--2--2--2--2-|-----------------------|-----------------------|

G|-------------------------|
D|--------5----------------|
A|--3--3-----3--3--3--2----|
D|-----------------------5-|

G|--------------------////-|-----------------------|-----------------------|-----------------------|
D|-------------------------|-----------------------|-----------------------|-----------------------|
A|-------------------------|-----------------------|-----------------------|5--5--5--5--5--5--5---5\
D|-----5--5--5--5--5--5--5-|5--5--5--5--5--5--5--0-|---0--0--0--0--0--0--0-|-----------------------|

G|-------------------------|-----------------------|-----------------------|-----------------------|
D|-------------------------|-----------------------|-----------------------|-----------------------|
A|--3-----3--3-----3--3----|3--3-----3-------------|-----------------------|-----------------------|
D|-------------------------|------------0--0-------|2--2--2--2--------2--2-|2--2--------2--2--2----|

G|-----------------------|||-----------------------|-----------------------|-----------------------|
D|-------------------------|-----------------------|-----------------------|-----------------------|
A|-------------------------|-----------------------|3--3--3--3--------3--3-|3--3--------3--3--3----|
D|--2--2--2--2--------2--2-|2--2--------2--2--2----|-----------------------|-----------------------|

G|-------------------------|---------12------------|-----------------------|-----------------------|
D|-------------------------|10-9--10-------10------|-----------------------|-----------------------|
A|--3--3--3--3--------3----|------------------10r--|-----------------------|-----------------------|
D|-------------------------|-----------------------|2--2--2--2--2--2--2--2-|2--2--2--2--2--2--2--2-|

G|-------------------------|-----------------------|-----------------------|-----------------------|
D|-------------------------|-----------------------|-----------------------|-----------------------|
A|-------------------------|7--7--7--5--7--7--5--3-|---3--3--3--3--3--3--3-|3--3--3--3--3--3--3--3-|
D|--2--2--2--2--2--2--2--2-|-----------------------|-----------------------|-----------------------|

G|-------------------------|-----------------------|-----------------------|-----------------------|
D|-------------------------|-----------------------|-----------------------|-----------------------|
A|--5--5--5--5--5--5--5--5-|5--5--5--5--5--5--5--5-|---3-----3--3-----3--3-|---10-10-10-9-----3----|
D|-------------------------|-----------------------|-----------------------|-----------------------|

G|-------------------------|-----------------------|-----------------------|-----------------------|
D|-------------------------|12-12-12-10------------|-----------------------|-----------------------|
A|--5-----5--5-----5--5----|---------------10------|-----------------------|-----------------------|
D|-------------------------|-----------------------|2--2--2--2--------2--2-|2--2--------2--2-------|

G|-------------------------|-----------------------|-----------------------|-----------------------|
D|-------------------------|-----------------------|-----------------------|-----------------------|
A|-------------------------|-----------------------|0--0--0--0--0--0--0--0-|0--0--0--0--0--0--0--0-|
D|--5--5--5--5--------5--5-|5--5--------5--5-------|-----------------------|-----------------------|

G|-------------------------|-----------------------|---------------5-------|-----------------------|
D|-------------------------|-----------------------|-----------------------|-----------------------|
A|--2--2--2--2--2--2--2--2-|2--2--2--2--2--2--2--2-|---3--3--3-----------3-|---3--5--5--5--7--7--10|
D|-------------------------|-----------------------|-----------------------|-----------------------|

G|-------------------------|-----------------------|-----------------------|-----------------------|
D|--9--10-10-9--9--9--10-12|---10----9--10-9-------|-----------------------|------------4----------|
A|-------------------------|---------------------10|---2-------------------|-----------------------|
D|-------------------------|-----------------------|-----------------------|-----------------------|

G|----------------------------|
D|--9-------------------------|
A|----------------------------|
D|----------------------------|

G|-------------------------|-----------------------|-----------------------|-----------------------|
D|-------------------------|-----------------------|-----------------------|-----------------------|
A|-----------------------3-|---3--3--3--3--3--3--3-|3--3--3--3--3--3--3----|---------------------5-|
D|-------------------------|-----------------------|-----------------------|0--0--0--0--0--0--0----|

G|-------------------------|-----------------------|-----------------------|-----------------------|
D|--------------------7----|-----------------------|-----------------------|-----------------------|
A|-----5--5--5--5--5-----5-|-----------------------|-----------------------|-----------------------|
D|-------------------------|2--2--2--2--2--2--2--2-|2--2--2--2--2--2--2--2-|5--5--5--5--5--5--5--5-|

G|-------------------------|-----------------------|-----------------------|-----------------------|
D|-------------------------|------------------5----|10-10-9--10-10-9-------|-----------------------|
A|-------------------------|3--3--3--3--3--3-------|------------------10---|-----------------------|
D|--5--5--5--5--7--5--5----|-----------------------|-----------------------|0--0--0--0--0--0--0----|

G|-------------------------|-----------------------|-----------------------|-----------------------|
D|-------------------------|-----------------------|-----------------------|-----------------------|
A|--5--5--5--5--5--5--5----|7--7--7--7--7--7--7--7-|7--7--7--7--7--7--7--7-|5--5--5--5--5--5--5----|
D|-------------------------|-----------------------|-----------------------|---------------------7-|

G|-------------------------|-----------------------|-----------------------|-----------------------|
D|-------------------------|---------------5-------|-----------------------|-----------------------|
A|--5--5--7--5--5--5--2--3-|---3--3--3--3-----3--5-|---5--5--5--5--5--5--7-|---7--7-----7-----7----|
D|-------------------------|-----------------------|-----------------------|-----------------------|

G|-------------------------|-----------------------|-----------------------|
D|-------------------------|-----------------------|-----------------------|
A|--7-----7-----7-----5--3-|-----------------------|5----------------------|
D|-------------------------|-----------------------|-----------------------|

G|-----------------------5-|------4----------------|-----------------------|
D|--------------5----------|------------5----------|-----------------------|
A|--3----------------------|-----------------------|-----------------------|
D|-------------------------|------------------0----|2--2--2--2--------2--2-|

G|-------------------------|-----------------------|-----------------------|
D|-------------------------|-----------------------|-----------------------|
A|-------------------------|-----------------------|-----------------------|
D|--2--2--------2--2--2----|2--2--2--2--------2--2-|2--2--------2--2--2----|

G|------------------------|-----------------------|-----------------------|
D|-------------------------|-----------------------|-----------------------|
A|--3--3--3--3--------3--3-|3--3--------3--3--3----|3--3--3--3--------3--3-|
D|-------------------------|-----------------------|-----------------------|

G|-------------------------|-----------------------|-----------------------|-----------------------|
D|-------------------------|-----------------------|---------------------5-|---------------------5-|
A|-------------------------|-----------------------|------------5--5--5----|7--7--7--7--7--5--7----|
D|--0--0--0--0--0--0--0--0-|2--2--2--2--2--2--2--2-|2--2--2--2-------------|-----------------------|

G|-----------------7-------|-----------------------|-----------------------|-----------------------|
D|-----5--7-----9------9/10|---10-10-10-10-9-----10|---10-10-10-10-10-10-10|0--0--4--0--4--5--0--7-|
A|--7----------------------|------------------10---|-----------------------|-----------------------|
D|-------------------------|-----------------------|-----------------------|-----------------------|

G|--5--7--5----------------|-----------------------|-----------------------|-----------------------|
D|-----------7--5--4-------|-----------------------|-----------------------|-----------------------|
A|--------------------5----|-----------------------|-----------------------|-----------------------|
D|-------------------------|-----------------------|-----------------------|-----------------------|

G|-------------------------|-----------------------|-----------------------|-----------------------|--------------------------|
D|-------------------------|-----------------------|-----------------------|-----------------------|--------------------------|
A|-------------------------|-----------------------|-----------------------|-----------------------|--------------------------|
D|-------------------------|-----------------------|-----------------------|-----------------------|--------------------------|

G|-------------------------|-----------------------|-----------------------|-----------------------|
D|-------------------------|-----------------------|-----------------------|------4-----9--9-------|
A|--3--3--3--3--3--3--3--3-|3--3--3--3--3--3--3--3-|---------------------2-|---2-----------------3-|
D|-------------------------|-----------------------|0--0--0--0--0--0--0----|-----------------------|

G|-------------------------|-----------------------|-----------------------|-----------------------|
D|-------------------------|-----------------------|-----------------------|-----------------------|
A|-----3--3--3--3--3--3--3-|3--3--3--3--3--3--3--3-|---------------------5-|---5--5--5--5--2--0----|
D|-------------------------|-----------------------|0--0--0--0--0--0--0----|-----------------------|

G|-------------------------|-----------------------|-----------------------|-----------------------|
D|-------------------------|-----------------------|-----------------------|-----------------------|
A|-------------------------|-----------------------|-----------------------|10-10-9--9--7--7--5--5-|
D|--2--2--2--2--2--2--2--2-|2--2--2--2--2--2--2--2-|5--5--5--5--5--5--5--5-|-----------------------|

G|-------------------------|------5----------------|-----------------------|-----------------------|
D|-------------------------|---5-------------------|-----------------------|-----------------------|
A|-----3--3--3--3--3--3--3-|------------3--3--3--3-|-----------------------|5--5--5--5--5--5--5--5-|
D|-------------------------|-----------------------|0--0--0--0--0--0--0--0-|-----------------------|

G|-------------------------|-----------------------|-----------------------|-----------------------|
D|-------------------------|-----------------------|-----------------------|-----------------------|
A|--7--7--7--7--7--7--7--7-|7--7--7--7--7--7--7--7-|5--5--5--5--5--5--5--5-|5--5--5--7--5--0--2--3-|
D|-------------------------|-----------------------|-----------------------|-----------------------|

G|-------------------------|-----------------------|-----------------------|-----------------------|
D|-----------------5-------|-----------------------|-----------------------|-----------------------|
A|-----3--3--3--3-----3--5-|---5--3--5--5--5--5--7-|---7--7-----7-----7----|7-----7-----7-----5--3-|
D|-------------------------|-----------------------|-----------------------|-----------------------|

G|-------------------------|-----------------------------|
D|-------------------------|-----------------------------|
A|-------------------------|------5----------------------|
D|-------------------------|-----------------------------|

G|-------------------------|-----------------------|-----------------------|-----------------------|
D|-------------------------|-----------------------|-----------------------|-----------------------|
A|-------------------------|-----------------------|-----------------------|-----------------------|
D|--2--2--2--2--------2--2-|2--2--------2--2--2----|2--2--2--2--------2--2-|2--2--------2--2--2----|

G|-------------------------|-----------------------|-----------------------|-----------------------|
D|-------------------------|-----------------------|-----------------------|-----------------------|
A|--3--3--3--3--------3--3-|3--3--------3--3--3----|3--3--3--3--------3--3-|3--3--------3--3--3----|
D|-------------------------|-----------------------|-----------------------|-----------------------|

G|------------------------|-----------------------|------------------------|
D|-------------------------|-----------------------|-----------------------|
A|-------------------------|-----------------------|-----------------------|
D|--2--2--2--2--------2--2-|2--2--------2--2--2----|2--2--2--2--------2--2-|

G|-------------------------|-----------------------|-----------------------|-----------------------|
D|-------------------------|-----------------------|-----------------------|10-10-10-9-------------|
A|-------------------------|3--3--3--3--3--3--3--3-|3--3--3--3--3--3--3--3-|---------------10------|
D|--2--2--------2--2--2----|-----------------------|-----------------------|-----------------------|

G|-------------------------|-----------------------|-----------------------|-----------------------|
D|-------------------------|-----------------------|-----------------------|-----------------------|
A|--3--5--5--5--5--3--5----|-----------------------|-----------------------|7--7--7--5--5--5--7----|
D|-------------------------|2--2--2--2--2--2--2--2-|2--2--2--2--2--2--2--2-|-----------------------|

G|-------------------------|-----------------------|-----------------------|
D|-------------------------|9--10-10-10-10-9--10---|12-10----9--10-9-------|
A|--7--9--9--9--10-10-10-12|-----------------------|------------------10---|
D|-------------------------|-----------------------|-----------------------|

G|-------------------------|-----------------------|-----------------------|-----------------------|
D|-------------------------|-----------------------|------------------4--4-|4--5--5--4--5--4-------|
A|-------------------------|------------0--0--3--3-|5--5--5--7--7--7-------|------------------5----|
D|--0--0--0--2--2--2--4--4-|4--5--5--5-------------|-----------------------|-----------------------|

G|-------------------------|-----------------------|-----------------------|-----------------------|
D|-------------------------|-----------------------|-----------------------|-----------------------|
A|--3--3--3--3--3--3--3--3-|3--3--3--3--3--3--3--3-|5--5--5--5--5--5--5--5-|5--5--5--5--5--5--5--5-|
D|-------------------------|-----------------------|-----------------------|-----------------------|

G|-------------------------|-----------------------|-----------------------|-----------------------|
D|-------------------------|-----------------------|-----------------------|7--9--7--------9--12---|
A|-------------------------|-----------------------|------------------7--10|---------10-9----------|
D|--2--2--2--2--------2--2-|2--2--------2--2--2--2-|5--5--5--5-----7-------|-----------------------|

G|-------------------------|-----------------------|-----------------------|-----------------------|
D|-------------------------|---------5--7--7--7--7-|7--9--9--7--9--9--7--7-|7--5--5--5--4--5--4----|
A|--0--0--0--0--0--0--0--0-|0--0--7----------------|-----------------------|---------------------5-|
D|-------------------------|-----------------------|-----------------------|-----------------------|

G|-------------------------|-----------------------|-----------------------|-----------------------|
D|-------------------------|-----------------------|-----------------------|-----------------------|
A|--3----------------------|-----------------------|-----------------------|-----------------------|
D|-------------------------|-----------------------|-----------------------|-----------------------|

G|-------------------------|-----------------------|-----------------------|-----------------------|
D|-------------------------|-----------------------|-----------------------|-----------------------|
A|-------------------------|-----------------------|-----------------------|-----------------------|
D|-------------------------|-----------------------|-----------------------|-----------------------|

G|----------------------------|---------------5-------|--------------------------|
D|----------------------------|-----------------------|--------------------------|
A|--------3-------------------|---------3-------------|--------------------------|
D|----------------------------|-----------------------|---------0----------------|

G|----------------------------|-----------------------|-----------------------|-----------------------|
D|----------------------------|-----------------------|-----------------------|-----------------------|
A|----------------------------|-----------------------|-----------------------|-----------------------|
D|---------------------0/-----|2--2--2--2--2--2--2--2-|2--2--2--2--2--2--2--2-|5--5--5--5--5--5--5--5-|

G|-------------------------|-----------------------|-----------------------|-----------------------|
D|-------------------------|-----------------------|------5----------------|-----------------------|
A|-------------------------|---3--3--3--3--3--3--3-|---3-----3--3--3--2--3-|5----------------------|
D|--5--5--5--5--5--5-------|-----------------------|-----------------------|------0--0--0--0--0--0-|

G|-------------------------|-----------------------|-----------------------|-----------------------|
D|-------------------------|-----------------------|-----------------------|-----------------------|
A|--5--5--5--7--5--5--5----|7--7--7--7--7--7--7--7-|7--7--7--7--7--7--7--7-|5--5--5--5--5--5--5--5-|
D|-------------------------|-----------------------|-----------------------|-----------------------|

G|-------------------------|-----------------------|-----------------------|------------------12---|
D|-------------------------|---------------5-------|-----------------------|---------14-12-14----14|
A|--7--7--9--9--7--5-----3-|---3--3--3--3-----3--5-|---5-----------------7-|---7-------------------|
D|-------------------------|-----------------------|------0--0--0--0--0----|-----------------------|

G|-------------------------|-----------------------|-----------------------|-----------------------|
D|-----12-14-12------------|-----------------------|-----------------------|-----------------------|
A|--------------------14/--|-----------------------|---5-------------------|-----------------------|
D|-------------------------|-----------------------|---------------------2-|---2--2--2--2--2--2--2-|

G|-------------------------|-----------------------|---------------7-------|-----------------------|
D|-------------------------|-----------------------|---5--5--4--5----------|-----------------------|
A|--7--7--7--7--7--7--5--3-|---3--3--3--3--3--3--3-|-----------------------|-----------------------|
D|-------------------------|-----------------------|---------------------5-|---5--5--5--5--5--5--5-|

G|-------------------------|-----------------------|-----------------------|------------------12---|
D|-------------------------|-----------------------|-----------------------|---------14-12-14----14|
A|-----------------------5-|---5--5--5--5--3--5--5-|---5--7--7--9--9--10-7-|---7-------------------|
D|--5--5--5--5--5--5--5----|-----------------------|-----------------------|-----------------------|

G|-------------------------|-----------------------|-----------------------|-----------------------|
D|-----12-14-12------------|------------------10-9-|7--7--5--5--4--4--5----|-----------------------|
A|-----------------14/---3-|---3--3--3---3/10------|-----------------------|-----------------------|
D|-------------------------|-----------------------|---------------------5-|---5--5--5--5--5--5--5-|

G|-------------------------|-----------------------|-----------------------|-----------------------|
D|--------------5----------|-----------------------|-----------------------|-----------------------|
A|--------5--------5--5----|-----------------------|------5--5--5--5--5--5-|3-----3--3-----3--3----|
D|--5--5-----------------0-|---0--0--0--0--0--0--0-|0--0-------------------|-----------------------|

G|-------------------------|
D|-------------------------|
A|--3--3-----3-------------|
D|--------------------0--0-|


Song lyrics here 
G|--
D|--
A|--
D|--

Use manual mode to free up cursor. Paste any tab in acousterr tab maker and we'll play it !!!

tabs and chords, guitar tabs, music transcription, music technology, deep learning, music information retrieval, transcribe into tabs & chords, chordify, music renditions, songsterr, reverbnation, tabulature, bollywood chords, ultimate guitar, yousician, guitar lessons, acoustic guitar, electric guitar, guitar tuner, 911 tabs