Bass Tabs for Despair - Pandora's Box

(/) Slide Up  (\) Slide Down  (h) Hammer On  (p) Pull Off  (b) Bend (r) Release (v) Vibrato (x) Muted

Tabs for Song : 
BPM : 110

Verse
G|-----------------------------------------------------------------------------------------------------------------------------------
D|-----------------------------------------------------------------------------------------------------------------------------------
A|--4--4--4--7--7--------------------4--4--4--7--7--------------------4--4--4--7--7--------------------4--4--4--7--7-----------------
E|-----------------7--7--7--5--5--------------------7--7--7--5--5--------------------7--7--7--5--5--------------------7--7--7--5--5--

Bridge
G|--------------------------------------------------
D|--------------------------------------------------
A|--2--2--2--2--2--2--2--2--2--2--2--2--2--2--2--2--
E|--------------------------------------------------

Verse
G|-----------------------------------------------------------------------------------------------------------------------------------
D|-----------------------------------------------------------------------------------------------------------------------------------
A|--4--4--4--7--7--------------------4--4--4--7--7--------------------4--4--4--7--7--------------------4--4--4--7--7-----------------
E|-----------------7--7--7--5--5--------------------7--7--7--5--5--------------------7--7--7--5--5--------------------7--7--7--5--5--

Bridge
G|--------------------------------------------------
D|--------------------------------------------------
A|--2--2--2--2--2--2--2--2--2--2--2--2--2--2--2--2--
E|--------------------------------------------------

Pre-Chorus
G|-----6-----------------------------6-----------------------------6-----------------------------6-----------------------
D|-----------9-----7-----9-----------------9-----7-----9-----------------9-----7-----9-----------------9-----7-----9-----
A|--4-----------------------------4-----------------------------4-----------------------------4--------------------------
E|--------7-----5-----7-----------------7-----5-----7-----------------7-----5-----7-----------------7-----5-----7--------


G|-----6-----------------------------6-----------------------------6-----------------------------6-----------------------
D|-----------9-----7-----9-----------------9-----7-----9-----------------9-----7-----9-----------------9-----7-----------
A|--4-----------------------------4-----------------------------4-----------------------------4--------------------------
E|--------7-----5-----7-----------------7-----5-----7-----------------7-----5-----7-----------------7-----5-----7--------

Chorus
G|--------------------------------------------------------------------------------------------------------------------------------------------------------------------
D|--------------------------------------------------------------------------------------------------------------------------------------------------------------------
A|--4--4--4--------7--7--7-----------4--4--4--------7--7--7-----------4--4--4--------7--7--7-----------4--4--4--------7--7--7-----------4--4--4--------7--7--7--------
E|-----------5--5-----------7--7--------------5--5-----------7--7--------------5--5-----------7--7--------------5--5-----------7--7--------------5--5-----------7--7--

Bridge
G|--------------------------------------------------
D|--------------------------------------------------
A|--2--2--2--2--2--2--2--2--2--2--2--2--2--2--2--2--
E|--------------------------------------------------

Verse
G|-----------------------------------------------------------------------------------------------------------------------------------
D|-----------------------------------------------------------------------------------------------------------------------------------
A|--4--4--4--7--7--------------------4--4--4--7--7--------------------4--4--4--7--7--------------------4--4--4--7--7-----------------
E|-----------------7--7--7--5--5--------------------7--7--7--5--5--------------------7--7--7--5--5--------------------7--7--7--5--5--

G|--------------------------------------------------------------------
D|--------------------------------------------------------------------
A|-----4--4--4--7--7--------------------4--4--4--7--7-----------------
E|--------------------7--7--7--5--5--------------------7--7--7--5--5--

Bridge
G|--------------------------------------------------
D|--------------------------------------------------
A|--2--2--2--2--2--2--2--2--2--2--2--2--2--2--2--2--
E|--------------------------------------------------

Verse
G|--------------------------------------------------------------------------------------------------------------------------------------------------------------------
D|--------------------------------------------------------------------------------------------------------------------------------------------------------------------
A|--4--4--4--7--7--------------------4--4--4--7--7--------------------4--4--4--7--7--------------------4--4--4--7--7--------------------4--4--4--7--7-----------------
E|-----------------7--7--7--5--5--------------------7--7--7--5--5--------------------7--7--7--5--5--------------------7--7--7--5--5--------------------7--7--7--5--5--

Bridge
G|--------------------------------------------------
D|--------------------------------------------------
A|--2--2--2--2--2--2--2--2--2--2--2--2--2--2--2--2--
E|--------------------------------------------------

Pre Chorus
G|-----6-----------------------------6-----------------------------6-----------------------------6-----------------------
D|-----------9-----7-----9-----------------9-----7-----9-----------------9-----7-----9-----------------9-----7-----9-----
A|--4-----------------------------4-----------------------------4-----------------------------4--------------------------
E|--------7-----5-----7-----------------7-----5-----7-----------------7-----5-----7-----------------7-----5-----7--------

G|-----6-----------------------------6-----------------------------6-----------------------------6-----------------------
D|-----------9-----7-----9-----------------9-----7-----9-----------------9-----7-----9-----------------9-----7-----9-----
A|--4-----------------------------4-----------------------------4-----------------------------4--------------------------
E|--------7-----5-----7-----------------7-----5-----7-----------------7-----5-----7-----------------7-----5-----7--------

Chorus
G|--------------------------------------------------------------------------------------------------------------------------------------------------------------------
D|--------------------------------------------------------------------------------------------------------------------------------------------------------------------
A|--4--4--4--------7--7--7-----------4--4--4--------7--7--7-----------4--4--4--------7--7--7-----------4--4--4--------7--7--7-----------4--4--4--------7--7--7--------
E|-----------5--5-----------7--7--------------5--5-----------7--7--------------5--5-----------7--7--------------5--5-----------7--7--------------5--5-----------7--7--

Bridge
G|--------------------------------------------------
D|--------------------------------------------------
A|--2--2--2--2--2--2--2--2--2--2--2--2--2--2--2--2--
E|--------------------------------------------------

Bass Interlude
G|-----6--6-----------9--9-----------------6--6-----------9--9-----------------6--6-----------9--9-----------------6--6-----------9--9--9--9--9--9--
D|--------------7--------------9--------------------7--------------9--------------------7--------------9--------------------7-----------------------
A|--4--------------7--------------------4--------------7--------------------4--------------7--------------------4--------------7--------------------
E|-----------5--------------7--------------------5--------------7--------------------5--------------7--------------------5--------------------------

Guitar Solo
G|-----6--6-----------9--9-----------------6--6-----------9--9-----------------6--6-----------9--9-----------------6--6-----------9--9--------------6--6-----------9--9--
D|--------------7--------------9--------------------7--------------9--------------------7--------------9--------------------7--------------9-----------------7-----------
A|--4--------------7--------------------4--------------7--------------------4--------------7--------------------4--------------7-----------------4--------------7--------
E|-----------5--------------7--------------------5--------------7--------------------5--------------7--------------------5--------------7-----------------5--------------

G|-----6--6-----------9--9-----------------6--6-----------9--9-----------------6--6-----------9--9-----------------6--6-----------9--9--------------6--6-----------9--9--
D|--------------7--------------9--------------------7--------------9--------------------7--------------9--------------------7--------------9-----------------7-----------
A|--4--------------7--------------------4--------------7--------------------4--------------7--------------------4--------------7-----------------4--------------7--------
E|-----------5--------------7--------------------5--------------7--------------------5--------------7--------------------5--------------7-----------------5--------------

G|-----6--6-----------9--9-----------------6--6-----------9--9-----------------6--6-----------9--9-----------------6--6-----------9--9--------------6--6-----------9--9--
D|--------------7--------------9--------------------7--------------9--------------------7--------------9--------------------7--------------9-----------------7-----------
A|--4--------------7--------------------4--------------7--------------------4--------------7--------------------4--------------7-----------------4--------------7--------
E|-----------5--------------7--------------------5--------------7--------------------5--------------7--------------------5--------------7-----------------5--------------

G|-----6--6-----------9--9-----------------6--6-----------9--9-----------------6--6-----------9--9-----------------6--6-----------9--9--------------6--6-----------9--9--
D|--------------7--------------9--------------------7--------------9--------------------7--------------9--------------------7--------------9-----------------7-----------
A|--4--------------7--------------------4--------------7--------------------4--------------7--------------------4--------------7-----------------4--------------7--------
E|-----------5--------------7--------------------5--------------7--------------------5--------------7--------------------5--------------7-----------------5--------------

Ending

G|-----------------------------------------------------------------------------------------
D|-----------------------------------------------------------------------------------------
A|--4--4--------7--7-----------4--4--------7--7-----------4-----------7---------------4/16-
E|--------5--5--------7--7-----------5--5--------7--7-----------5-----------7--------------




tabs and chords, guitar tabs, music transcription, music technology, deep learning, music information retrieval, transcribe into tabs & chords, chordify, music renditions, songsterr, reverbnation, tabulature, bollywood chords, ultimate guitar, yousician, guitar lessons, acoustic guitar, electric guitar, guitar tuner, 911 tabs