Mandolin Tabs for Depois Do Adeus

(v) Vibrato

Tabs for Song : Depois do Adeus
                     
 Intro:
E|--2--4--5v-2--4--5v-5--7--9v-5--7--9v-10-9--5--9--9--10-9--5--2v-5--9--9--10-9--5--1v-
A|--------------------------------------------------------------------------------------
D|--------------------------------------------------------------------------------------
G|--------------------------------------------------------------------------------------

Estrofe 1
E|--------2v-0--0----------------5--4--2--0---2v---0--0------2v---0--2--0-----------------------2--0-----0--2--0--
A|--0--4-------------------------------------------------4--5--------------5--7---4v-2--4--5v-7--------5----------
D|----------------------------------------------------------------------------------------------------------------
G|----------------------------------------------------------------------------------------------------------------
                                                                                        Estrofe 2
E|--------------0--2--4--5v-4v-5v-5--9v-9--5--0v-------0v-2--5--4--2v-0--2--0-----------5--4--2--0--1v-0v---------
A|--5--4--5v-5-----------------------------------4--5-----------------------------------------------------------
D|--------------------------------------------------------------------------------------------------------------
G|--------------------------------------------------------------------------------------------------------------

E|--5--4--2--0--1v-0v----------1v-0--1--0-----0--------------0--1--0-----0--1--0-----------------------1--0------------
A|----------------------4--5--------------5-----4v-2--4--5v----------5-----------5--4--5v-5--4--5v-5---------5v----3--
D|--------------------------------------------------------------------------------------------------------------------
G|--------------------------------------------------------------------------------------------------------------------

------------------------------------               Fim
E|--------------0-------------0v-0--4--5v----------------2v--0--0--5--4--2--0-----5--7--12v---11v---5--4--2v-0v-5v-
A|-3v---2--3v-3-----3-3v-3--5-----------------------0--4-----------------------5v-----------------------------------
D|-----------------------------------------------------------------------------------------------------------------
G|-----------------------------------------------------------------------------------------------------------------





tabs and chords, guitar tabs, music transcription, music technology, deep learning, music information retrieval, transcribe into tabs & chords, chordify, music renditions, songsterr, reverbnation, tabulature, bollywood chords, ultimate guitar, yousician, guitar lessons, acoustic guitar, electric guitar, guitar tuner, 911 tabs