Guitar Tabs for Dennis Lloyd - Aura

(/) Slide Up  (\) Slide Down  (h) Hammer On  (p) Pull Off  (b) Bend (r) Release (v) Vibrato (x) Muted

Tabs for Song : 
BPM : 135
Most of the bends are slow so listen to the song to determine what bends should be slow.

Section I
E|-----------------------------------------------------------------------------
B|-----------------------------------------------------------------------------
G|--------9--11-11b13----11b13----11b13----11b13-11-9--11b13----11b13-11-9--8--
D|---9h11----------------------------------------------------------------------
A|-----------------------------------------------------------------------------
E|-----------------------------------------------------------------------------

Section II
E|-----------------------------------------------------------------------------12-14-11-11-11-11-11-11-
B|--------------------12-12-------12-12-------12-12-------12-12-12/14-14-14-14-------------------------
G|--------9--11-11b13-------11b13-------11b13-------11b13----------------------------------------------
D|---9h11----------------------------------------------------------------------------------------------
A|-----------------------------------------------------------------------------------------------------
E|-----------------------------------------------------------------------------------------------------

Section III

E|-----14b16----14b16----14b16----14b16-14-12-14-12-14-
B|-----------------------------------------------------
G|-----------------------------------------------------
D|-----------------------------------------------------
A|-----------------------------------------------------
E|-----------------------------------------------------

E|-----11-12-11-------12-14-14b16-14p12----14b16-14p12----14b16-14p12----14b16-14p12----14b16-14p12----14b16-14p12----11-12-11-12-0--
B|--------------12/14-------------------14-------------14-------------14-------------14-------------14-------------14----------------
G|-----------------------------------------------------------------------------------------------------------------------------------
D|-----------------------------------------------------------------------------------------------------------------------------------
A|-----------------------------------------------------------------------------------------------------------------------------------
E|-----------------------------------------------------------------------------------------------------------------------------------

Section IV
E|--19b21----19b21----19b21----19b21-19-17-16-17-16-------12-14-12-14b16b14----14b16-14p12----14b16-14p12----14b16-14p12----14b16-14p12----------9--12-14-12-14b16~-
B|--------------------------------------------------19-------------------------------------14-------------14-------------14-------------14-12b14-------------------
G|-----------------------------------------------------------------------------------------------------------------------------------------------------------------
D|-----------------------------------------------------------------------------------------------------------------------------------------------------------------
A|-----------------------------------------------------------------------------------------------------------------------------------------------------------------
E|-----------------------------------------------------------------------------------------------------------------------------------------------------------------
tabs and chords, guitar tabs, music transcription, music technology, deep learning, music information retrieval, transcribe into tabs & chords, chordify, music renditions, songsterr, reverbnation, tabulature, bollywood chords, ultimate guitar, yousician, guitar lessons, acoustic guitar, electric guitar, guitar tuner, 911 tabs