Guitar Tabs for Demon

(/) Slide Up  (\) Slide Down  (h) Hammer On  (p) Pull Off  (b) Bend (r) Release (v) Vibrato (x) Muted

Tabs for Song : 
BPM : 270

Intro 
D|--------------------------------------------------------------------------------------------------\
A|--------------------------------------------------------------------------------------------------
F|--------------------------------------------------3-----3--3--3--3--3--3--3--2--2--2--2-----------
C|--5--5--3--0-----5-----------5-----------------------------------------------------------3--3--3--
G|--5--5--3--0--------6--5--0-----6--5--0--3--5--6--1-----1--1--1--1--1--1--1--1--1--1--1--3--3--3--
C|--5--5--3--0--------------------------------------------------------------------------------------


D|--------------------------------------------------------------------------------------------
A|--------------------------------------------------------------------------------1--1--1-----
F|-----------------------------------------3-----3--3--3--3--3--3--3--2--2--2--2--2--2--2-----
C|--0-----5-----------5-----------------------------------------------------------2--2--2--0--
G|--0--------6--5--0-----6--5--0--3--5--6--1-----1--1--1--1--1--1--1--1--1--1--1-----------0--
C|--0--------------------------------------------------------------------------------------0--

Verse
D|--------------------------------------------------
A|--------------------------------------------------
F|--------------------------------------------------
C|--------------------------------------------------
G|--------5--------5--------5--------5--------5--6--
C|--0--0-----0--0-----0--0-----0--0-----0--0--------

D|--------------------------------------------------
A|--------------------------------------------------
F|--------------------------------------------------
C|--------------------------------------------------
G|--------5--------6--------8--------6--------5-----
C|--0--0-----0--0-----0--0-----0--0-----0--0--------


Bridge
D|--------------------------------------------------------------------------------------------------------
A|--------------------------------------------------------------------------------------------------------
F|--------------------------------------------------------------------------------------------------------
C|--0-----------0-----------0-----------0-----------0-----0-----0-----0-----0-----0--0-----0-----0-----0--
G|--0-----------0-----------0-----------0-----------0-----0-----0-----0-----0-----0--0-----0-----0-----0--
C|--0-----------0-----------0-----------0-----------0-----0-----0-----0-----0-----0--0-----0-----0-----0--

D|--------------------------------------------------------------------------------------------
A|--------------------------------------------------------------------------------------------
F|--3-----3--3--3--3--3--3--2--2--2--2--------------------------------------------------------
C|--------------------------------------3--3--3--0-----------5-----------5--------------------
G|--1-----1--1--1--1--1--1--1--1--1--1--3--3--3--0--------------6--5--0-----6--5--0--3--5--6--
C|-----------------------------------------------0--------0-----------------------------------

D|-----------------------------------------------------------------------------------------------
A|-----------------------------------------1--1--1-----------------------------------------------
F|--3-----3--3--3--3--3--3--3--2--2--2--2--2--2--2-----------------------------------------------
C|-----------------------------------------2--2--2--0-----------5-----------5--------------------
G|--1-----1--1--1--1--1--1--1--1--1--1--1-----------0--------------6--5--0-----6--5--0--3--5--6--
C|--------------------------------------------------0--------0-----------------------------------

Break

D|-----------------------------------------------------------------------------------------------
A|-----------------------------------------------------------------------------------------------
F|--7-----7--7--7--7--7--10----10-10-10-10-10-10-9-----9--9--9--9--9--9--8-----8--8--8--8--10-8--
C|-----------------------------------------------------------------------------------------------
G|--5-----5--5--5--5--5--8-----8--8--8--8--8--8--7-----7--7--7--7--7--7--6-----6--6--6--6--8--6--
C|-----------------------------------------------------------------------------------------------

D|--------------------------------------------------------------------------------------------------\
A|--------------------------------------------------------------------------------------------------
F|--------------------------------------------------------------------------------------------------
C|--8-----8--8--8--8--8--8--8--8--8--8--8--8--10----7-----7--7--7--7--7--7--7--7--------------------
G|--8-----8--8--8--8--8--8--8--8--8--8--8--8--10----7-----7--7--7--7--7--7--7--7--------------------
C|--8-----8--8--8--8--8--8--8--8--8--8--8--8--10----7-----7--7--7--7--7--7--7--7--0--5--7--8--7--5--

Use manual mode to free up cursor. Paste any tab in acousterr tab maker and we'll play it !!!
tabs and chords, guitar tabs, music transcription, music technology, deep learning, music information retrieval, transcribe into tabs & chords, chordify, music renditions, songsterr, reverbnation, tabulature, bollywood chords, ultimate guitar, yousician, guitar lessons, acoustic guitar, electric guitar, guitar tuner, 911 tabs