Bass Tabs for Demo Song 3

(/) Slide Up  (\) Slide Down  (h) Hammer On  (p) Pull Off  (b) Bend (r) Release (v) Vibrato (x) Muted

Tabs for Song : 
BPM : 200

Song lyrics here 
G|-----------------------------------------------------------------------------------------------------------------
D|-----------------------------------7--------------5--------------------------------------------------------------
A|-----------------------------------------------------------------------------------------------------------------
E|--0--0--0--0--2--3--2--0--0--0--5-----0--0--0--3-----0--0--0--5--4--3--0--0--0--0--2--3--5--0--0--0--0--2--3--0--

Song lyrics here 


Use manual mode to free up cursor. Paste any tab in acousterr tab maker and we'll play it !!!
G|--
D|--
A|--
E|--

Guitar Tabs for Demo Song 3






E|-----------------------------------------------------------------------------------------------------------------
B|-----------------------------------------------------------------------------------------------------------------
G|-----------------------------------------------------------------------------------------------------------------
D|--------------4--5--4--------------7-----------5-----------7--6--5--------------4--4--5--7--------------4--5--2--
A|--------------4--5--4--------------7-----------5-----------7--6--5--------------4--4--5--7--------------4--5--2--
E|--0--0--0--0--2--3--2--0--0--0--0--5--0--0--0--3--0--0--0--5--4--3--0--0--0--0--2--2--3--5--0--0--0--0--2--3--0--

-
tabs and chords, guitar tabs, music transcription, music technology, deep learning, music information retrieval, transcribe into tabs & chords, chordify, music renditions, songsterr, reverbnation, tabulature, bollywood chords, ultimate guitar, yousician, guitar lessons, acoustic guitar, electric guitar, guitar tuner, 911 tabs