Bass Tabs for Demo Song 2

(/) Slide Up  (\) Slide Down  (h) Hammer On  (p) Pull Off  (b) Bend (r) Release (v) Vibrato (x) Muted

Tabs for Song : 
BPM : 200

Song lyrics here 
G|--------------------------
D|-----11-------------------
A|--------10-11----11-10-9--
E|--9-----------------------


Guitar Tabs for Demo Song 2






E|--------------------------
B|--------------------------
G|--------------------------
D|-----------7-----8--7--5--
A|--5--7--8-----------------
E|--------------------------

tabs and chords, guitar tabs, music transcription, music technology, deep learning, music information retrieval, transcribe into tabs & chords, chordify, music renditions, songsterr, reverbnation, tabulature, bollywood chords, ultimate guitar, yousician, guitar lessons, acoustic guitar, electric guitar, guitar tuner, 911 tabs