Bass Tabs for Nu'est W - Dejavu

(/) Slide Up  (\) Slide Down  (h) Hammer On  (p) Pull Off  (b) Bend (r) Release (v) Vibrato (x) Muted

Tabs for Song : Dejavu by Nu'est W
Made by Juliette S.

(These are the tabs for the bass line and not the melody)

bpm:108

Intro
G|--------------------------------------------------
D|--6-----4-----------------6-----4-----------------
A|--------------------------------------------------
E|--------------7-----4-----------------7-----7-----

G|--------------------------------------------------
D|--6-----4-----------------6-----4-----------------
A|--------------------------------------------------
E|--------------7-----4-----------------7-----------

Verse
G|--------------------------------------------------
D|--6-----4-----6-----4-----------4-----6-----------
A|--------------------------------------------------
E|--------------------------4-----------------------

G|--------------------------------------------------
D|--6-----4-----6-----4-----------4-----6-----------
A|--------------------------------------------------
E|--------------------------4-----------------------

G|--------------------------------------------------
D|--6-----4-----6-----4-----------4-----6-----------
A|--------------------------------------------------
E|--------------------------4-----------------------
Prechorus
G|--------------------------------------------------
D|--------------------------------------------------
A|--------------------------------------------------
E|--4-----------7-----------2-----------4-----------
Chorus
G|--------------------------------------------------------------------------------------------------------------------------
D|-----------6-----------6-----6-----------9-----------9-----9-----------4-----------4-----4-----------6-----------6-----6--
A|--------------------------------------------------------------------------------------------------------------------------
E|--4--------------4--4-----4-----7--------------7--7-----7-----2--------------2--2-----2-----4--------------4--4-----4-----

 

Paste any tab in acousterr's tab maker and we'll play it !!!
Now supports capo and sound effects for vibrato/pull-off/hammer/bends/mutes etc !!! Checkout help section


Note: Green part is in 1/16 but the rest in 1/4!
tabs and chords, guitar tabs, music transcription, music technology, deep learning, music information retrieval, transcribe into tabs & chords, chordify, music renditions, songsterr, reverbnation, tabulature, bollywood chords, ultimate guitar, yousician, guitar lessons, acoustic guitar, electric guitar, guitar tuner, 911 tabs