Bass Tabs for Default

(/) Slide Up  (\) Slide Down  (h) Hammer On  (p) Pull Off  (b) Bend (r) Release (v) Vibrato (x) Muted

Tabs for Song : 
BPM : 325

Song lyrics here 
G|--------------------------------------------------------------------------------------------------
D|--------------------------------------------------------------------------------------------------
A|--------------------------------------------------------------------------------------------------
E|--1-----2-----3-----2-----1-----2-----3-----2-----1-----2-----3-----2-----1-----2-----3-----2-----

G|--------------------------------------------------------------------------------------------------
D|--------------------------------------------------------------------------------------------------
A|--------------------------------------------------------------------------------------------------
E|--1-----2-----3-----2-----1-----2-----3-----2-----1-----2-----3-----2-----1-----2-----3-----2-----

G|--------------------------------------------------------------------------------------------------
D|-----------3-----------------------3-----------------------3-----------------------3--------------
A|-----5--3-----3--------1-----5--3-----3--------1-----5--3-----3--------1-----5--3-----3--------1--
E|--3--------------2--1-----3--------------2--1-----3--------------2--1-----3--------------2--1-----

G|--------------------------------------------------------------------------------------------------
D|-----------------------------------------------------------------------------------------0--------
A|-----1-----1-----1-----0-----1-----1-----1-----1-----0-----1-----1-----1-----1-----0--------------
E|--0-----0-----0-----0-----0-----0-----0-----0-----0-----0-----0-----0-----0-----0-----0-----1-----

G|--------------------------------------------------------------------------------------------------
D|-----------------------------------------------------------------------------------------------3--
A|--------------------------------------------------------------------------------------------5-----
E|--2-----3-----2-----1-----2-----3-----2-----1-----2-----3-----2-----1-----2-----3-----0--3--------

G|--------------------------------------------------------------------------------------------------
D|--------------------3--------------------3--------------------3-----------------------------------
A|--3--------1-----5-----3--------1-----5-----3--------1-----5-----3--------1-----1-----1-----1-----
E|-----2--1-----3-----------2--1-----3-----------2--1-----3-----------2--1-----0-----0-----0-----0--

G|--------------------------------------------------------------------------------------------------
D|--------------------------------------------------------------------0-----------------------------
A|--0-----1-----1-----1-----1-----0-----1-----1-----1-----1-----0-----------------------------------
E|-----0-----0-----0-----0-----0-----0-----0-----0-----0-----0-----0-----1-----2-----3-----2-----1--

G|--------------------------------------------------------------------------------------------------
D|--------------------------------------------------------------------------------------------------
A|--------------------------------------------------------------------9-----7-----9-----7-----9-----
E|-----3-----2-----1-----2-----3-----2-----1-----2-----3-----0-----7-----7-----7-----7-----7-----7--

G|--------------------------------------------------------------------------------------------------
D|--------------------------------------------------------------------------------------------------
A|--7-----9-----7-----9-----9-----9-----9-----7-----7-----7-----7-----6-----6-----6-----6-----5-----
E|-----7-----7-----8-----8-----8-----8-----8-----8-----8-----8-----7-----7-----7-----7-----6-----6--

G|--------------------------------------------------------------------------------------------------
D|--------------------------------------------------------------------------------------------------
A|--5-----5-----5-----------------------------------------------------------------------------------
E|-----6-----6-----0-----1-----2-----3-----2-----1-----2-----3-----2-----1-----2-----3-----2-----1--

G|--------------------
D|--------------------
A|--------------------
E|-----2-----3-----2--

Song lyrics here 
G|--
D|--
A|--
E|--

Use manual mode to free up cursor. Paste any tab in acousterr tab maker and we'll play it !!!
tabs and chords, guitar tabs, music transcription, music technology, deep learning, music information retrieval, transcribe into tabs & chords, chordify, music renditions, songsterr, reverbnation, tabulature, bollywood chords, ultimate guitar, yousician, guitar lessons, acoustic guitar, electric guitar, guitar tuner, 911 tabs