Guitar Tabs for Debt Chords

(/) Slide Up  (\) Slide Down  (h) Hammer On  (p) Pull Off  (b) Bend (r) Release (v) Vibrato (x) Muted

Tabs for Song : 
BPM : 200
Capo 2

(G) 	   	  	      (Em)   	             (Am)
I saw a man today who looked a whole lot like you
	
Andrew (two measure of 7/8 then back to 4/4)
E|----------------------------------------------
B|-----------3--5--0--------------3--5--0--------
G|--------------------2--0-----------------2--0--
D|--------2--------------------2-----------------
A|-----3--------------------3--------------------
E|-----------------------------------------------

(G)                      (Em)        (Am)
He had a watch, he had a trumpet bag and some scars on his forehead
(same 7/8 riff as before)

(G)                                           (Em)
I almost cried there on the bus cause I remembered how together
(Am)	
You and I made some friends we thought would

Be forever
(7/8 riff)

(G)
How’ve you been?
                (Em)
How’s grad school?
(Am) 
I feel like I will always be 
(Cmaj7)               (D7)
In debt to those that say that they love me

Owen plays an intentionally bad guitar fill

(G)             (Em)              
I listen to your records in the washitsu
       (Am)           (C)
Cause I fucking miss you
(G)                (Em)
Wore your band’s t shirt on the subway
    (Am)                               (C)
And everyone was throwing looks my way

(G)
Got lost in kawaramachi
                      (Em)
Busses all in fucking kanji
(Am)
New york the training match

140 days till I come back 
(7/8 riff again)

(G)
How’ve you been?
                (Em)
How’s the job hunt?
(Am) 
I feel like I will always be
(Cmaj7)         (D7)
In debt to those that say that they love me

Switch to 3/4
(Amin9)                                             (G)
When I’m back I’ll fall over myself to come see you
(Amin9)                  (G)
I don’t care where you are

Dad fixed my car so I’ll go where I please
E|--------------------x4
B|--------------------
G|--------------4-----
D|--------5--------5--
A|-----3-----3--------
E|--5-----------------

It’s these old conversations that make me complete
E|--------------------x4
B|--------------------
G|--------------4-----
D|--------5--------5--
A|-----5-----5--------
E|--3-----------------

(same as above)
So come see me
Make time for that

Instrumental section in 5/8

E|--------------------------------------------------------------
B|--------------------------------------------------------------
G|--------7--------------5--------------0--4--0--------0--4--0--
D|-----5--------5-----4--------4-----2--------------2-----------
A|--7--------7-----5--------5-----3--------------3--------------
E|--------------------------------------------------------------



(G)		                       (Em)
How’ve you been, and can’t you see that I will
(Am)           (Cmaj7)        (D7)      (G)
Always be in debt for how you treat me


tabs for the riffs in the second verse starting at 0:44

Storm
E|--------------------x--x--x--x--------------------------------x2
B|--------------------x--x--x--x--------------------11-9--------
G|--8--9--8--9--8--9--x--x--x--x--8--9--8--9--8--9--------8--9--
D|--------------------x--x--x--x--------------------------------
A|--------------------x--x--x--x--------------------------------
E|--------------------x--x--x--x--------------------------------

(got lost in kawaramachi....)
E|--------7--9--
B|-----9--------
G|--8-----------
D|--------------
A|--------------
E|--------------
......to come see you//i dont care where you are
E|-----9--------9--------9--------9--------3--------3--------3--------3-----5--3-----------9--------9--------9--------9--
B|--------0--------0--------0--------0--------0--------0--------0--------0--------4-----0--------0--------0--------0-----
G|--9--------9--------9--------9--------4--------4--------4--------4-----------------9--------9--------9--------9--------
D|-----------------------------------------------------------------------------------------------------------------------
A|-----------------------------------------------------------------------------------------------------------------------
E|-----------------------------------------------------------------------------------------------------------------------

Owens Part starting at 0:44                                                            got lost in kawaramachi...
E|-----------------------------------------------------------------------------------------------------------
B|--------------------------------------7-----------------------------------------------------------7--10-12-
G|--------------9--7--6--------------------9-----6--------------9--7--6-----------------7--6--7--9-----------
D|-----------------------7--------------------9--------------------------7-----------------------------------
A|-----------------------------------------------------------------------------------------------------------
E|-----------------------------------------------------------------------------------------------------------

E|--
B|--
G|--
D|--
A|--
E|--


tabs and chords, guitar tabs, music transcription, music technology, deep learning, music information retrieval, transcribe into tabs & chords, chordify, music renditions, songsterr, reverbnation, tabulature, bollywood chords, ultimate guitar, yousician, guitar lessons, acoustic guitar, electric guitar, guitar tuner, 911 tabs