Guitar Tabs for Death Of The Big Gae

Intro
E|--------------------------------------------------------------------------
B|--------0-----------------0-----------------0-----------------0-----------
G|-----------2-----2-----------2-----2-----------2-----2-----------2-----2--
D|-----2--------2--------2--------2--------2--------2--------2--------2-----
A|--0-----------------0-----------------3-----------------3-----------------
E|--------------------------------------------------------------------------

E|--------------------------------------------------------------------------
B|--------0-----------------0-----------------0-----------------0-----------
G|-----------2-----2-----------2-----2-----------2-----2-----------2-----2--
D|-----2--------2--------2--------2--------2--------2--------2--------2-----
A|--------------------------------------------------------------------------
E|--1-----------------1-----------------0-----------------0-----------------

Riff 1
E|------------0h1--1------------1p0--0--------------------------------------
B|------------------------------------------------3p1--1------------1p0--0--
G|--------2-----------------2-----------------2-----------------2-----------
D|-----2-----------------2-----------------2-----------------2--------------
A|--0-----------------3-----------------------------------------------------
E|--------------------------------------1-----------------0-----------------
x2

Bridge
E|--------------------------------------------------------------------------
B|--------0-----------0-----------3-----------3-----------1-----------1-----
G|--------2-----------2-----------0-----------0-----------2-----------2-----
D|-----2--2--2-----2--2--------2--2--2-----2--2--------2--2--2-----2--2-----
A|--3-----------3-----------2-----------2-----------0-----------0-----------
E|--------------------------------------------------------------------------

E|-----------------------
B|--------1-----------1--
G|--------2-----------2--
D|-----2--0--2-----2--2--
A|--0-----------0--------
E|-----------------------
x2

Riff 2
E|------------0h1--1------------1p0--0------------3/5--5------------3\1--1--
B|-----------------------------------------------------------------------0--
G|--------2-----------------2-----------------2-----------------2-----------
D|-----2-----------------2-----------------2-----------------2--------------
A|--0-----------------------------------------------------------------------
E|--------------------3-----------------1-----------------0-----------------

End
E|--------0-----1--0--------0--------------------
B|--3--------------0-----------3-----1-----0-----
G|--0--------------------------2-----------1--2--
D|-----------------------------------------------
A|--0--------------3--------------------------0--
E|-----------------------------1-----------0-----










































tabs and chords, guitar tabs, music transcription, music technology, deep learning, music information retrieval, transcribe into tabs & chords, chordify, music renditions, songsterr, reverbnation, tabulature, bollywood chords, ultimate guitar, yousician, guitar lessons, acoustic guitar, electric guitar, guitar tuner, 911 tabs