Guitar Tabs for Dead Or Lie

(/) Slide Up  (\) Slide Down  (h) Hammer On  (p) Pull Off  (b) Bend (r) Release (v) Vibrato (x) Muted

Tabs for Song : 
BPM : 200

Song lyrics here 
E|--1--3--5--1--3--6--5--3--1--0--0--1--0--------1--3--6--5--4--3--5--1-----
B|-----------------------------------------1-----------------------------3--
G|--------------------------------------------2-----------------------------
D|--------------------------------------------------------------------------
A|--------------------------------------------------------------------------
E|--------------------------------------------------------------------------

E|--1-----------------0--0--1--0-----------1--0-----1--0-----3--1--0--1--1--0--
B|-----3-----1--3--3--------------1-----3--------3--------3--------------------
G|--------2--------------------------2-----------------------------------------
D|-----------------------------------------------------------------------------
A|-----------------------------------------------------------------------------
E|-----------------------------------------------------------------------------

E|--1-----------------0--0--1--0-----------1--3-----1--3-----5--3--5--3--5--6--5--3--
B|-----3-----1--3--3--------------1-----3--------3--------3--------------------------
G|--------2--------------------------2-----------------------------------------------
D|-----------------------------------------------------------------------------------
A|-----------------------------------------------------------------------------------
E|-----------------------------------------------------------------------------------

E|--1-----------------0--0--1--0-----------1--1--0-----3--1--0-----------1--3--4--3--1--
B|-----3-----1--3--3--------------1-----3-----------1-----------1--1--3-----------------
G|--------2--------------------------2--------------------------------------------------
D|--------------------------------------------------------------------------------------
A|--------------------------------------------------------------------------------------
E|--------------------------------------------------------------------------------------

E|-----0--1-----0--1--0--1--3--0--1--3-----6--5--3--1--1--------1--3--1--3--6--5--5--5--
B|--3--------3--------------------------2-----------------1--3--------------------------
G|--------------------------------------------------------------------------------------
D|--------------------------------------------------------------------------------------
A|--------------------------------------------------------------------------------------
E|--------------------------------------------------------------------------------------

E|--10-5--3--5--3--1--3--5--------1--------------5--3--5--8--
B|--------------------------3--1-----3--3--1--3--------------
G|-----------------------------------------------------------
D|-----------------------------------------------------------
A|-----------------------------------------------------------
E|-----------------------------------------------------------

E|--10-5--3--1--3--1--3--5-----------------5--3--5-----
B|--------------------------3--3--3--1--3-----------3--
G|-----------------------------------------------------
D|-----------------------------------------------------
A|-----------------------------------------------------
E|-----------------------------------------------------

E|-----------1--5--3--1--3--5--------1--------------5--3--5--1-----
B|--3--3--3--------------------3--1-----3--3--1--3--------------3--
G|-----------------------------------------------------------------
D|-----------------------------------------------------------------
A|-----------------------------------------------------------------
E|-----------------------------------------------------------------

E|-----1-----3--4--3--1--1-----1-----1-----1--1--3--4--3--1-----
B|--3-----3-----------------3-----3-----3--------------------3--
G|--------------------------------------------------------------
D|--------------------------------------------------------------
A|--------------------------------------------------------------
E|--------------------------------------------------------------

Song lyrics here 
E|--
B|--
G|--
D|--
A|--
E|--

Use manual mode to free up cursor. Paste any tab in acousterr tab maker and we'll play it !!!
tabs and chords, guitar tabs, music transcription, music technology, deep learning, music information retrieval, transcribe into tabs & chords, chordify, music renditions, songsterr, reverbnation, tabulature, bollywood chords, ultimate guitar, yousician, guitar lessons, acoustic guitar, electric guitar, guitar tuner, 911 tabs