Dead End Cruisin - The Bones - Guitar Tabs

Guitar1
    
                                                                                                                                                                                                                                                                                                                                                                                                                                                                                                                                                                                                                                                                                                                                                                                                                                                                                                                                                                                                                                                                                                                                                                                              
E|----------------------------------------------|--------------------------------------------|
B|----------------------------------------------|--------------------------------------------|
G|----------------------------------------------|--------------------------------------------|
D|--4--4--4-----4-----4-----4-----------4--4----|4--4--4-----4-----4-----4-----------4--4----|
A|--4--4--4-----4-----4-----4-----------4--4----|4--4--4---2p4--2--4-----4-----2-----4--4--2-|
E|--2--2--2--0--2--0--2-----2-----0-----2--2--0-|2--2--2---0p2--0--2-----2-----0-----2--2--0-|

    
                                                                                                                                                                                                                                                                                                                                                                                                                                                                                                                                                                                                                                                                                                                                                                                                                                                                                                                                                                                                                                                                                                                                                                                              
E|----------------------------------------------|--------------------------------------------|
B|----------------------------------------------|--------------------------------------------|
G|----------------------------------------------|--------------------------------------------|
D|--4--4--4-----4-----4-----4--4--------4--4----|4--4--4-----4-----4-----4--4--------4--4----|
A|--4--4--4---2p4--2--4-----4--4--2-----4--4--2-|4--4--4---2p4--2--4-----4--4--2-----4--4--2-|
E|--2--2--2---0p2--0--2-----2--2--0-----2--2--0-|2--2--2---0p2--0--2-----2--2--0-----2--2--0-|

    
                                                                                                                                                                                                                                                                                                                                                                                                                                                                                                                                                                                                 
E|-------------------------------------------------|
B|-------------------------------------------------|
G|-------------------------------------------------|
D|-------------------------------------------------|
A|-------------------------------------------------|
E|--2--2--2--2--2--2--2--2--2--2--2--2--2--2--2--2-|

    
                                                                                                                                                                                                                                                                                                                                                                                                                                                                                                                                                                                                                                                                                                                                                                                                                                                                                                                                                                                                                                                                                                                                                                                              
E|----------------------------------------------|-----------------------------------------------|
B|----------------------------------------------|-----------------------------------------------|
G|----------------------------------------------|-----------------------------------------------|
D|--4--4--4-----4-----4-----4--4--------4--4----|-----------------------------------------------|
A|--4--4--4---2p4--2--4-----4--4--2-----4--4--2-|-----------------------------------------------|
E|--2--2--2---0p2--0--2-----2--2--0-----2--2--0-|2--2--2--2--2--2--2--2--2--2--2--2--2--2--2--2-|

    
                                                                                                                                                                                                                                                                                                                                                                                                                                                                                                                                                                                                                                                                                                                                                                                                                                                                                                                                                                                                                                                                                                                                                                                              
E|----------------------------------------------|--------------------------------------------|
B|----------------------------------------------|--------------------------------------------|
G|----------------------------------------------|4--4--4-----4-----4-----4--4--------4--4----|
D|--4--4--4-----4-----4-----4--4--------4--4----|4--4--4-----4-----4-----4--4--------4--4----|
A|--4--4--4---2p4--2--4-----4--4--2-----4--4--2-|2--2--2---0p2--0--2-----2--2--0-----2--2--0-|
E|--2--2--2---0p2--0--2-----2--2--0-----2--2--0-|--------------------------------------------|

    
                                                                                                                                                                                                                                                                                                                                                                                                                                                                                                                                                                                                                                                                                                                                                                                                                                                                                                                                                                                                                                                                                                                                                                                              
E|----------------------------------------------|-----------------------------------------------|
B|----------------------------------------------|-----------------------------------------------|
G|--4--4--4-----4-----4-----4--4--------4--4----|-----------------------------------------------|
D|--4--4--4-----4-----4-----4--4--------4--4----|-----------------------------------------------|
A|--2--2--2---0p2--0--2-----2--2--0-----2--2--0-|-----------------------------------------------|
E|----------------------------------------------|2--2--2--2--2--2--2--2--2--2--2--2--2--2--2--2-|

    
                                                                                                                                                                                                                                                                                                                                                                                                                                                                                                                                                                                                                                                                                                                                                                                                                                                                                                                                                                                                                                                                                                                                                                                              
E|----------------------------------------------|--------------------------------------------|
B|----------------------------------------------|--------------------------------------------|
G|----------------------------------------------|6--6--6--6--6--6--6-----6--6--6--6--6--6--6-|
D|--4--4--4-----4-----4-----4--4--------4--4----|6--6--6--6--6--6--6-----6--6--6--6--6--6--6-|
A|--4--4--4---2p4--2--4-----4--4--2-----4--4--2-|4--4--4--4--4--4--4-----4--4--4--4--4--4--4-|
E|--2--2--2---0p2--0--2-----2--2--0-----2--2--0-|--------------------------------------------|

    
                                                                                                                                                                                                                                                                                                                                                                                                                                                                                                                                                                                                                                                                                                                                                                                                                                                                                                                                                                                                                                                                                                                                                                                              
E|----------------------------------------------|-----------------------------------|
B|----------------------------------------------|-----------------------------------|
G|--6--6--6--6--6--6--6-----6--6--6--6--6--6--6-|-----------------------------------|
D|--6--6--6--6--6--6--6-----6--6--6--6--6--6--6-|4--4--4--4--4--4--2--2--2--2--2--2-|
A|--4--4--4--4--4--4--4-----4--4--4--4--4--4--4-|4--4--4--4--4--4--2--2--2--2--2--2-|
E|----------------------------------------------|2--2--2--2--2--2--0--0--0--0--0--0-|

    
                                                                                                                                                                                                                                                                                                                                                                                                                                                                                                                                                                                                                                                                                                                                                                                                                                                                                                                                                                                                                                                                                                                                                                                              
E|-------------------------------------------|-----------------------------------|
B|-------------------------------------------|-----------------------------------|
G|--7--7--7--7--7--7--7--7--7--7--7--7--7--7-|-----------------------------------|
D|--7--7--7--7--7--7--7--7--7--7--7--7--7--7-|4--4--4--4--4--4--2--2--2--2--2--2-|
A|--5--5--5--5--5--5--5--5--5--5--5--5--5--5-|4--4--4--4--4--4--2--2--2--2--2--2-|
E|-------------------------------------------|2--2--2--2--2--2--0--0--0--0--0--0-|

    
                                                                                                                                                                                                                                                                                                                                                                                                                                                                                                                                                                                                                                                                                                                                                                                                                                                                                                                                                                                                                                                                                                                                                                                              
E|-------------------------------------------|-----------------------------------------|
B|-------------------------------------------|-----------------------------------------|
G|--7--7--7--7--7--7--7--7--7--7--7--7--7--7-|6--6--6--6--6--6--6--6--6--6--6--6--6--6-|
D|--7--7--7--7--7--7--7--7--7--7--7--7--7--7-|6--6--6--6--6--6--6--6--6--6--6--6--6--6-|
A|--5--5--5--5--5--5--5--5--5--5--5--5--5--5-|4--4--4--4--4--4--4--4--4--4--4--4--4--4-|
E|-------------------------------------------|-----------------------------------------|

    
                                                                                                                                                                                                                                                                                                                                                                                                                                                                                                                                                                                                 
E|----------------------------------------------|
B|----------------------------------------------|
G|----------------------------------------------|
D|--4--4--4-----4-----4-----4--4--------4--4----|
A|--4--4--4---2p4--2--4-----4--4--2-----4--4--2-|
E|--2--2--2---0p2--0--2-----2--2--0-----2--2--0-|

    
                                                                                                                                                                                                                                                                                                                                                                                                                                                                                                                                                                                                                                                                                                                                                                                                                                                                                                                                                                                                                                                                                                                                                                                              
E|----------------------------------------------|--------------------------|
B|----------------------------------------------|--------------------------|
G|----------------------------------------------|--------------------------|
D|--4--4--4-----4-----4-----4--4--------4--4----|4-----2-----4-------------|
A|--4--4--4---2p4--2--4-----4--4--2-----4--4--2-|4-----2-----4-------------|
E|--2--2--2---0p2--0--2-----2--2--0-----2--2--0-|2-----0-----2-------------|

    
                                                                                                                                                                                                                                                                                                                                                                                                                                                                                                                                                                                                 
E|----------------------------|
B|----------------------------|
G|----------------------------|
D|--4-----4-------------------|
A|--4-----4-------------------|
E|--2-----2-------------------|

About Hymns for Strange Children : Hymns for Strange Children is the d├ębut album from London-based glam rockers Rachel Stamp . Recorded by John Fryer in as little as two weeks . The catalogue number was CRRS 003L . The catalogue numbers were CRRS 0003L. The catalogue catalogue number of the catalogue number It had a contribution from notable artists like Rachel Stamp,John Fryer. Its music is influenced by genres - alternative rock , glam rock.

tabs and chords, guitar tabs, music transcription, music technology, deep learning, music information retrieval, transcribe into tabs & chords, chordify, music renditions, songsterr, reverbnation, tabulature, bollywood chords, ultimate guitar, yousician, guitar lessons, acoustic guitar, electric guitar, guitar tuner, 911 tabs