Guitar Tabs for David Guetta - Titanium

David Guetta - Titanium

CAPO -> 3rd Fret

Intro
   C9                       Em7/B
E|--------------0-----------------------------------
B|--------3-----------3-----3-----1-----3-----1-----
G|-----0-----0-----0-----0-----0-----0-----0-----0--
D|--------------------------------------------------
A|--3-----------------------2-----------------------
E|--------------------------------------------------

   A4                       A4/E
E|--------------0-----------------------0-----------
B|--------3-----------3-----------3-----------3-----
G|-----2-----2-----2-----2-----2-----2-----2-----2--
D|--------------------------------------------------
A|--0-----------------------------------------------
E|--------------------------0-----------------------

    C9                       Em7/B
E|--------------0-----------------------------------
B|--------3-----------3-----3-----1-----3-----1-----
G|-----0-----0-----0-----0-----0-----0-----0-----0--
D|--------------------------------------------------
A|--3-----------------------2-----------------------
E|--------------------------------------------------

    E4
E|--------------0--------1-----0-----------0--------
B|--------3-----------3--------------3-----------1--
G|-----2-----2-----2--------2-----2-----2-----2-----
D|--------------------------------------------------
A|--0-----------------------------------------------
E|--------------------------------------------------

Verse

   C9                       Em7/B
              You shout it out
E|--------------0-----------------------------------
B|--------3-----------3-----3-----1-----3-----1-----
G|-----0-----0-----0-----0-----0-----0-----0-----0--
D|--------------------------------------------------
A|--3-----------------------2-----------------------
E|--------------------------------------------------

    A4                       A4/E
But I   can't   hear   a    word   you   say
E|--------------0-----------------------0-----------
B|--------3-----------3-----------3-----------3-----
G|-----2-----2-----2-----2-----2-----2-----2-----2--
D|--------------------------------------------------
A|--0-----------------------------------------------
E|--------------------------0-----------------------

    C9                       Em7/B
             I'm   talking   loud, not saying much
E|--------------0-----------------------------------
B|--------3-----------3-----3-----1-----3-----1-----
G|-----0-----0-----0-----0-----0-----0-----0-----0--
D|--------------------------------------------------
A|--3-----------------------2-----------------------
E|--------------------------------------------------

    E4
E|--------------0--------1-----0-----------0--------
B|--------3-----------3--------------3-----------1--
G|-----2-----2-----2--------2-----2-----2-----2-----
D|--------------------------------------------------
A|--0-----------------------------------------------
E|--------------------------------------------------

   C9                       Em7/B
              I'm  criticized
E|--------------0-----------------------------------
B|--------3-----------3-----3-----1-----3-----1-----
G|-----0-----0-----0-----0-----0-----0-----0-----0--
D|--------------------------------------------------
A|--3-----------------------2-----------------------
E|--------------------------------------------------

    A4                       A4/E
    But  all  your  bullets  ricochet
E|--------------0-----------------------0-----------
B|--------3-----------3-----------3-----------3-----
G|-----2-----2-----2-----2-----2-----2-----2-----2--
D|--------------------------------------------------
A|--0-----------------------------------------------
E|--------------------------0-----------------------

    C9                       Em7/B
          You   shoot   me   down, but I get up
E|--------------0-----------------------------------
B|--------3-----------3-----3-----1-----3-----1-----
G|-----0-----0-----0-----0-----0-----0-----0-----0--
D|--------------------------------------------------
A|--3-----------------------2-----------------------
E|--------------------------------------------------

    E4
E|--------------0--------1-----0-----------0--------
B|--------3-----------3--------------3-----------1--
G|-----2-----2-----2--------2-----2-----2-----2-----
D|--------------------------------------------------
A|--0-----------------------------------------------
E|--------------------------------------------------

Chorus

You can play the entire song with the intro and verse pattern but playing the entire chord makes it more interesting.

    F                 G             Em
      I'm bulletproof, nothing to lose
E|--1-----------------3--------------0--
B|--1-----------------3--------------0--
G|--2-----------------0--------------0--
D|--3-----------------0--------------2--
A|--3-----------------2--------------2--
E|--1-----------------3--------------0--
 
            Am7
    Fire away, fire away
E|-----------0-----------
B|-----------1-----------
G|-----------2-----------
D|-----------2-----------
A|-----------0-----------
E|-----------------------

    F          G               Em
       Ricochet, you take your aim
E|--1-----------3--------------0--
B|--1-----------3--------------0--
G|--2-----------0--------------0--
D|--3-----------0--------------2--
A|--3-----------2--------------2--
E|--1-----------3--------------0--

            Am7
    Fire away, fire away
E|-----------0-----------
B|-----------1-----------
G|-----------2-----------
D|-----------2-----------
A|-----------0-----------
E|-----------------------

    F                 G             Em             
     You shoot me down but I won't fall      
E|--1-----------------3--------------0--           
B|--1-----------------3--------------0--
G|--2-----------------0--------------0--
D|--3-----------------0--------------2--
A|--3-----------------2--------------2--
E|--1-----------------3--------------0--
    
            Am7   F                                  
    I am tita___nium
E|-----------0----1---------
B|-----------1----1---------
G|-----------2----2---------
D|-----------2----3---------
A|-----------0----3---------
E|----------------1---------

    F                 G             Em             
     You shoot me down but I won't fall      
E|--1-----------------3--------------0--           
B|--1-----------------3--------------0--
G|--2-----------------0--------------0--
D|--3-----------------0--------------2--
A|--3-----------------2--------------2--
E|--1-----------------3--------------0--
    
            Am7                                     
    I am tita___nium
E|-----------0----1---------
B|-----------1----1---------
G|-----------2----2---------
D|-----------2----3---------
A|-----------0----3---------
E|----------------1---------

    F     G     Em    Am7
E|--1-----3-----0-----0--     
B|--1-----3-----0-----1--
G|--2-----0-----0-----2--    2x
D|--3-----0-----2-----2--
A|--3-----2-----2-----0--
E|--1-----3-----0--------
    

Repeat the intro

2nd Verse
  C9                      Em7/B
                  Cut  me  down            But it's 
E|--------------0-----------------------------------
B|--------3-----------3-----3-----1-----3-----1-----
G|-----0-----0-----0-----0-----0-----0-----0-----0--
D|--------------------------------------------------
A|--3-----------------------2-----------------------
E|--------------------------------------------------

   A4                       A4/E
   you    who'd   have     further  to   fall
E|--------------0-----------------------0-----------
B|--------3-----------3-----------3-----------3-----
G|-----2-----2-----2-----2-----2-----2-----2-----2--
D|--------------------------------------------------
A|--0-----------------------------------------------
E|--------------------------0-----------------------

    C9                       Em7/B
                        Ghost town    and haunted love
E|--------------0-----------------------------------
B|--------3-----------3-----3-----1-----3-----1-----
G|-----0-----0-----0-----0-----0-----0-----0-----0--
D|--------------------------------------------------
A|--3-----------------------2-----------------------
E|--------------------------------------------------

    E4
E|--------------0--------1-----0-----------0--------
B|--------3-----------3--------------3-----------1--
G|-----2-----2-----2--------2-----2-----2-----2-----
D|--------------------------------------------------
A|--0-----------------------------------------------
E|--------------------------------------------------

   C9                       Em7/B
                 Raise your voice
E|--------------0-----------------------------------
B|--------3-----------3-----3-----1-----3-----1-----
G|-----0-----0-----0-----0-----0-----0-----0-----0--
D|--------------------------------------------------
A|--3-----------------------2-----------------------
E|--------------------------------------------------

    A4                       A4/E
    Sticks  and  stones may  break my bones
E|--------------0-----------------------0-----------
B|--------3-----------3-----------3-----------3-----
G|-----2-----2-----2-----2-----2-----2-----2-----2--
D|--------------------------------------------------
A|--0-----------------------------------------------
E|--------------------------0-----------------------

    C9                       Em7/B
                I'm talking loud         Not saying much
E|--------------0-----------------------------------
B|--------3-----------3-----3-----1-----3-----1-----
G|-----0-----0-----0-----0-----0-----0-----0-----0--
D|--------------------------------------------------
A|--3-----------------------2-----------------------
E|--------------------------------------------------

    E4
E|--------------0--------1-----0-----------0--------
B|--------3-----------3--------------3-----------1--
G|-----2-----2-----2--------2-----2-----2-----2-----
D|--------------------------------------------------
A|--0-----------------------------------------------
E|--------------------------------------------------

Repeat Chorus

After 2nd Chorus Variation

    F            G                Em            Am7
      Stone-hard,   machine gun, firing at the ones who run
E|--1-----------3-----------------0--------------0--------
B|--1-----------3-----------------0--------------1--------
G|--2-----------4-----------------0--------------0--------
D|--3-----------5-----------------2--------------2--------
A|--3-----------5-----------------2--------------0--------
E|--1-----------3-----------------0-----------------------

    F            G                Em            Am7
      Stone-hard,  as bulletproof gla________________ss
E|--1-----------3-----------------0--------------0--------
B|--1-----------3-----------------0--------------1--------
G|--2-----------4-----------------0--------------0--------
D|--3-----------5-----------------2--------------2--------
A|--3-----------5-----------------2--------------0--------
E|--1-----------3-----------------0-----------------------

Last Chorus

    F                 G             Em             
     You shoot me down but I won't fall      
E|--1-----------------3--------------0--           
B|--1-----------------3--------------0--
G|--2-----------------0--------------0--
D|--3-----------------0--------------2--
A|--3-----------------2--------------2--
E|--1-----------------3--------------0--
    
            Am7   F                                  
    I am tita___nium
E|-----------0----1---------
B|-----------1----1---------
G|-----------2----2---------
D|-----------2----3---------
A|-----------0----3---------
E|----------------1---------

    F                 G             Em             
     You shoot me down but I won't fall      
E|--1-----------------3--------------0--           
B|--1-----------------3--------------0--
G|--2-----------------0--------------0--
D|--3-----------------0--------------2--
A|--3-----------------2--------------2--
E|--1-----------------3--------------0--
    
            Am7   F                                  
    I am tita___nium
E|-----------0----1---------
B|-----------1----1---------
G|-----------2----2---------
D|-----------2----3---------
A|-----------0----3---------
E|----------------1---------

    F                 G             Em             
     You shoot me down but I won't fall      
E|--1-----------------3--------------0--           
B|--1-----------------3--------------0--
G|--2-----------------0--------------0--
D|--3-----------------0--------------2--
A|--3-----------------2--------------2--
E|--1-----------------3--------------0--
    
            Am7   F                                  
    I am tita___nium
E|-----------0----1---------
B|-----------1----1---------
G|-----------2----2---------
D|-----------2----3---------
A|-----------0----3---------
E|----------------1---------

    F                 G             Em             
     You shoot me down but I won't fall      
E|--1-----------------3--------------0--           
B|--1-----------------3--------------0--
G|--2-----------------0--------------0--
D|--3-----------------0--------------2--
A|--3-----------------2--------------2--
E|--1-----------------3--------------0--
    
            Am7                                    
    I am tita___nium
E|-----------0----1---------
B|-----------1----1---------
G|-----------2----2---------
D|-----------2----3---------
A|-----------0----3---------
E|----------------1---------

    F     G     Em    Am7
E|--1-----3-----0-----0--     
B|--1-----3-----0-----1--
G|--2-----0-----0-----2--   
D|--3-----0-----2-----2--
A|--3-----2-----2-----0--
E|--1-----3-----0--------
    
Ending

    F     G     Em            Am7
                      I am titanium
E|--1-----3-----0--------------0--     
B|--1-----3-----0--------------1--
G|--2-----0-----0--------------2--   
D|--3-----0-----2--------------2--
A|--3-----2-----2--------------0--
E|--1-----3-----0-----------------








tabs and chords, guitar tabs, music transcription, music technology, deep learning, music information retrieval, transcribe into tabs & chords, chordify, music renditions, songsterr, reverbnation, tabulature, bollywood chords, ultimate guitar, yousician, guitar lessons, acoustic guitar, electric guitar, guitar tuner, 911 tabs