Guitar Tabs for Daughter Of Hate

(/) Slide Up  (\) Slide Down  (h) Hammer On  (p) Pull Off  (b) Bend (r) Release (v) Vibrato (x) Muted

Tabs for Song : 

Song lyrics here
E|-----------------------------------------
B|-----------------------------------------
G|--------4--4---4/-5\4--------4--4--5--2--
D|---1/2------------------1/2--------------
A|-----------------------------------------
E|-----------------------------------------

E|-----------------------------------------
B|-----------------------------------------
G|--------4--4---4/-5\4--------4--4--5--2--
D|---1/2------------------1/2--------------
A|-----------------------------------------
E|-----------------------------------------

Song lyrics here
E|-----------------------------------------------------------
B|-----------------------------------------------------------
G|---3/4------------------3/4-----------------------2--4-----
D|--------5--4--2--4--5--------5--4--2--4--5--4--5--------4--
A|-----------------------------------------------------------
E|-----------------------------------------------------------

E|--------------------------------------------------------------
B|------------------------------------------------------4/5--4--
G|---3/4------------------3/4-----------------------2-----------
D|--------5--4--2--4--5--------5--4--2--4--5--4--5--------------
A|--------------------------------------------------------------
E|--------------------------------------------------------------

E|--------------------------------------------------------------
B|------------------------------------------------------6/7--6--
G|---5/6------------------5/6-----------------------4-----------
D|--------7--6--4--6--7--------7--6--4--6--7--6--7--------------
A|--------------------------------------------------------------
E|--------------------------------------------------------------

Paste any tab in acousterr's tab maker and we'll play it !!!
Now supports capo and sound effects for vibrato/pull-off/hammer/bends/mutes etc !!! Checkout help section
tabs and chords, guitar tabs, music transcription, music technology, deep learning, music information retrieval, transcribe into tabs & chords, chordify, music renditions, songsterr, reverbnation, tabulature, bollywood chords, ultimate guitar, yousician, guitar lessons, acoustic guitar, electric guitar, guitar tuner, 911 tabs