Guitar Tabs for Dani Po Redu

(/) Slide Up  (\) Slide Down  (h) Hammer On  (p) Pull Off  (b) Bend (r) Release (v) Vibrato (x) Muted

Tabs & Chords
BPM : 144.0
Check Track 2 for Chord Positions 

    G                             C              D                       G                    
E|--15----15----------------------------------------------------------------------------------
B|--------------15-15----15-------------------------------------------------------------------
G|-----------------------------------------------------------------------------------------14-
D|--------------------------17-------17-------------------------------17-17-17-17-17-17-17----
A|--------------------------------17-------17----17----17-17----17----------------------------
E|--------------------------------------------------------------------------------------------

                                  C                 D                       G                 
E|--------------------------------------------------------------------------------------------
B|--------------------------------------------------------------------------------------------
G|-----------------------------------------------------------------------------16-------------
D|--17----17-------17----17-------17-17-17-17-17-------------------------15-17----17----17-17-
A|-----17-------17-------------17-------------------17----17-17----17-17-------------17-------
E|--------------------------------------------------------------------------------------------

                               C           G                                                     
E|--0--------------------0--------------------------------0-----------------------------------0--
B|-----------------------------------------------------------------------------------------------
G|-----------------------------------------------------------------------------------------------
D|--------17----17----17-------16----------17----17----------17-------17----17-------------------
A|-----------------17----------------17-17----------17----------17-15----------17-17----15-------
E|-----------------------------------------------------------------------------------------------

                         C                             D     G                    Em 
E|--------------------------0-----0-----------------------------------------------0--
B|-----------------------------------------------------------------------------------
G|--------------------------------------------14-------------16----16-16-------------
D|-----------17----17----17-------------17----------------------------------16-------
A|-----17-------------17-------------------------------17----------------------------
E|-----------------------------------------------------------------------------------

Guitar Tabs for Dani Po Redu






    G                             C              D                       G                    
E|--3-----------------------------0--------------2-----------------------3--------------------
B|--3-----------------------------1--------------3-----------------------3--------------------
G|--4-----------------------------0--------------2-----------------------4--------------------
D|--5-----------------------------2--------------0-----------------------5--------------------
A|--5-----------------------------3--------------------------------------5--------------------
E|--3--------------------------------------------------------------------3--------------------

                                  C                 D                       G                 
E|--------------------------------0-----------------2-----------------------3-----------------
B|--------------------------------1-----------------3-----------------------3-----------------
G|--------------------------------0-----------------2-----------------------4-----------------
D|--------------------------------2-----------------0-----------------------5-----------------
A|--------------------------------3-----------------------------------------5-----------------
E|--------------------------------------------------------------------------3-----------------

                               C           G                                                     
E|-----------------------------0-----------3-----------------------------------------------------
B|-----------------------------1-----------3-----------------------------------------------------
G|-----------------------------0-----------4-----------------------------------------------------
D|-----------------------------2-----------5-----------------------------------------------------
A|-----------------------------3-----------5-----------------------------------------------------
E|-----------------------------------------3-----------------------------------------------------

                         C                             D     G                    Em 
E|-----------------------0-----------------------------2-----3--------------------0--
B|-----------------------1-----------------------------3-----3--------------------0--
G|-----------------------0-----------------------------2-----4--------------------0--
D|-----------------------2-----------------------------0-----5--------------------2--
A|-----------------------3-----------------------------------5--------------------2--
E|-----------------------------------------------------------3--------------------0--

tabs and chords, guitar tabs, music transcription, music technology, deep learning, music information retrieval, transcribe into tabs & chords, chordify, music renditions, songsterr, reverbnation, tabulature, bollywood chords, ultimate guitar, yousician, guitar lessons, acoustic guitar, electric guitar, guitar tuner, 911 tabs