Guitar Tabs for D Minor Leads

(/) Slide Up  (\) Slide Down  (h) Hammer On  (p) Pull Off  (b) Bend (r) Release (v) Vibrato (x) Muted

Tabs for Song : 

Song lyrics here

E|-----------------------------------------------------------------------------------------
B|--------------------------------12b13-------------------------------------------12b13-12-
G|-----------------------10b12-10----------------------------------------10b12-10----------
D|-----------------10-12-------------------------------------------10-12-------------------
A|--------10-11-12----------------------------------------8--10/12-------------------------
E|--10-13-------------------------------------------8--10----------------------------------


E|--------------------------------------------------
B|--------------------------------------------------
G|--------------------------------------------------
D|--------------------------------------------------
A|--------------------------------------------------
E|--0--4--7--4--0--5--8--5--0--7--10-7--0--8--12-8--

E|--------------------------------------------------------------------
B|--------------------------------------------------------------------
G|--------------------------------------------------------------------
D|--------------------------------------------------------------------
A|--------------------------------------------------------------------
E|--0--4--7--4--7--4--0--5--8--5--8--5--0--7--10-7--0--8--12-8--12-8--

E|------
B|--
G|--
D|--
A|--
E|--

Song lyrics here
E|--
B|--
G|--
D|--
A|--
E|--

Paste any tab in acousterr's tab maker and we'll play it !!!
Now supports capo and sound effects for vibrato/pull-off/hammer/bends/mutes etc !!! Checkout help section
tabs and chords, guitar tabs, music transcription, music technology, deep learning, music information retrieval, transcribe into tabs & chords, chordify, music renditions, songsterr, reverbnation, tabulature, bollywood chords, ultimate guitar, yousician, guitar lessons, acoustic guitar, electric guitar, guitar tuner, 911 tabs