Guitar Tabs for Still Together

still together:



intro/ verse:

E|--4--4-----4--4-----2--2-----2--2-----2--2-----2--2-----2--2-----2--2-----
B|--5--5-----4--4-----2--2-----4--4-----2--2-----4--4-----2--2-----4--4-----
G|--4--4-----4--4-----2--2-----2--2-----2--2-----2--2-----2--2-----2--2-----
D|--6--6-----4--4-----2--2-----4--4-----2--2-----4--4-----2--2-----4--4-----
A|--4--4-----6--6-----4--4-----2--2-----4--4-----2--2-----4--4-----2--2-----
E|-----------4--4-----2--2--------------2--2--------------2--2--------------


chorus:


E|--------------------2--2-----2--2-----2--2-----2--2-----2--2-----2--2-----------
B|--9--9-----9--9-----4--4-----4--4-----2--2-----4--4-----2--2-----4--4-----------
G|--9--9-----9--9-----2--2-----2--2-----2--2-----2--2-----2--2-----2--2-----------
D|--9--9-----9--9-----4--4-----4--4-----2--2-----4--4-----2--2-----4--4-----------
A|--7--7-----7--7-----2--2-----2--2-----4--4-----2--2-----4--4-----2--2-----------
E|--------------------------------------2--2--------------2--2--------------------
tabs and chords, guitar tabs, music transcription, music technology, deep learning, music information retrieval, transcribe into tabs & chords, chordify, music renditions, songsterr, reverbnation, tabulature, bollywood chords, ultimate guitar, yousician, guitar lessons, acoustic guitar, electric guitar, guitar tuner, 911 tabs