Guitar Tabs for D Maj Chords/arps

D MAJ CHORDS/ ARPS:

CHORDS:

 D, E, F?, G, A, B, and C?
 
    D     EM   F?M    G     A    BM    C?D    D
E|--2-----0-----------3-----------------------2--------
B|--3-----0-----------3-----2-----------------3--------
G|--2-----0-----------0-----2-----4-----6-----2--------
D|--0-----2-----4-----0-----2-----4-----5-----0--------
A|--------2-----4-----2-----0-----2-----4--------------
E|--------0-----2-----3--------------------------------




ARPS:

    D                                   EM
E|--------------2--5--------------------------------3--7-----
B|-----------3-----------------------------------5-----------
G|--------2-----------------------------------4--------------
D|-----4-----------------------------------5-----------------
A|--5-----------------------------------7--------------------
E|-----------------------------------------------------------

   F?M                                  G
E|--------------5--9--------------------------------7--10----
B|-----------7-----------------------------------8-----------
G|--------6-----------------------------------7--------------
D|-----7-----------------------------------9-----------------
A|--9-----------------------------------10-------------------
E|-----------------------------------------------------------

    A                                   BM
E|--------------9--12-------------------------------10-14----
B|-----------10----------------------------------12----------
G|--------9-----------------------------------11-------------
D|-----11----------------------------------12----------------
A|--12----------------------------------14-------------------
E|-----------------------------------------------------------
tabs and chords, guitar tabs, music transcription, music technology, deep learning, music information retrieval, transcribe into tabs & chords, chordify, music renditions, songsterr, reverbnation, tabulature, bollywood chords, ultimate guitar, yousician, guitar lessons, acoustic guitar, electric guitar, guitar tuner, 911 tabs